Toshio Masuda - Tentens Theme tab

                                TenTen's Theme            
                                    Naruto                      
                                Toshiro Masuda


E||-----------------------0--|--------------0--------|B||--------------------0-----|--3--------L-----3--0--|G||-----------------2--------|--2--------------------|D||-----------0--2-----------|--3--------------------|A||-----0--2-----------------|-----------------------|E||--0-----------------------|-----------------------|
-------------------------0--|--------------0--------|-------------0------0--|----------(3)-------(3)-----|--3--------L-----3--0--|-----------------------|2----0---------(0)----------|--2--------------------|--2----0---------------|2---------------------------|--3--------------------|--2----------2---------|2---------------------------|-----------------------|--2--------------------|----------------------------|-----------------------|----------0------------|
-----------------------|--------------------|-----------------------|--3----1--3------------|--------------------|--3----1--3------------|--2----------2----0----|--2--------2--------|--2----------2----0----|--3----------0---------|--2--------2--------|--3----------0---------|-------------2---------|--0--------0--------|-------------2---------|--1----------3---------|--------------------|--1----------3---------|
--------------------0--|--------------0--------|---------------------------0|----1------------------|--3--------L-----3--0--|------------(3)-------(3)---|-2-----0--2------------|--2--------------------|--2----0---------(0)--------|-2-----------2---------|--3--------------------|--2-------------------------|-3-----------3---------|-----------------------|--2-------------------------|-----------------------|--1--------------------|--0-------------------------|
--------------0--------|------------0------0--|-----------------------|--3--------L-----3--0--|----------------------|--3----1--3------------|--2--------------------|--2----0--------------|--2----------2----0----|--3--------------------|--2---------2---------|--3----------0---------|-----------------------|--2-------------------|-------------2---------|--1--------------------|--0-------------------|--1----------3---------|
----------------------|-----------------------|-----------------------|----------------------|--3----1--3------------|-----1-----------------|--2-------------------|--2----------2----0----|--2-----0--2-----------|--2--------(2)--------|--3----------0---------|--2-----------2--------|--0--------(0)--------|-------------2---------|--3-----------2--------|----------------------|--1----------3---------|--------------0--------|
--------------0-----0--3--||---5-----5--3--5--3--0-----|--------0--3-----3--------||------------------------3--|-----2--------------------||*-----2--------------------|--2-----------------------||*--3-----3-----3-----3-----|--2-----------------------||---------------------------|--0-----------------------||---------------------------|
-----------------------3--|--5-----5--3--5--3--0-----|--5-----5-----5-----5-----|-----------------------3--|-----2-----2-----2--------|-----2--------------------|--2-----2-----2-----2-----|--3-----3-----3-----3-----|--------------------------|--------------------------|--------------------------|--------------------------|
-----------------------3--|--5-----8-----7--5--------|--5-----5-----5-----5-----|--------------------8--5--|-----5-----5-----5--------|-----5-----5--------------|--2-----2-----2-----2-----|--------------5-----5-----|--------------------------|--8-----8-----------------|--------------------------|--------------------------|
---------12-----10--------------|--5-----8-----7--5--------|--10----------------12--10------|--------------------8--5--|------9------9--------------12--|-----5-----5--------------|---7------7---------------------|--------------5-----5-----|----------------10------10------|--8-----8-----------------|--------------------------------|--------------------------|
--5-----5-----5------------||--------------------------|-----5-----5--------5--8---||--10--10------10--10------|-----------------7--------*||--------------------------|--7-----7-----7-----------*||--10----------10----------|---------------------------||--------------------------|---------------------------||---8-----------8----------|
----------10---8-------8----|--------------------------|--10--10---------10---------|--10--10------10--10------|----------------------------|--------------------------|--10------------------------|---8-----------8----------|----------------------------|--------------------------|---8--------------8---------|---6-----------6----------|
----------10---8-------8----|--5----5---3-5--8----3--|--5----8----10----13--|--10--10---------10---------|------------------------|----------------------|----------------------------|------------------------|--7---------10--------|---8--------------8---------|--5----------7----------|----------------------|----------------------------|------------------------|--5-------------------|---6--------------6---------|--3----------5----------|-------------8--------|
--17----17---15-17--<>20--17--15--|--17----17----19--------|----------------------------------|--------------19--------|----------------------------------|--------------19--------|--15------------17----------------|--17--------------------|----------------------------------|------------------------|--18------------15----------------|--17----------19--------|
--0-------------------0---2---<>12---||------------------0--------|----3-0---0-------3----------------0-||---3-----------------3--0--|--------2---2------------------------||*--2-----------------------|--------------3-2-2-3-2-0-2-3---/7---||*--3-----------------------|------0---2---5----------------------||---------------------------|--0----------------------------------||---1--1--1--1--1--1--1--1--|
-----------------------0--|-----------------0--------|--------------------------|--3-----------------3--0--|--2-----0-----------------|--2-----------------------|--2-----------------------|--3-----------------------|--2-----------------------|--------------------------|--0--0--0--0--0--0--0--0--|--1--1--1--1--1--1--1--1--|
--------------0--------0--|--------------------------|--------------------------|--3-----1--3--------------|--2-----0-----------------|--2-----------2-----0-----|--2-----------------------|--3-----------0-----------|--2-----------------------|--------------2-----------|--0--0--0--0--0--0--0--0--|--1--1--1--1--3--3--3--3--|
--------------------------|-----------------------|------------------------||--------------------------|--3----1--3------------|-----1------------------||--2-----------------------|--2----------2----0----|--2-----0--2-----------*||--2-----------2-----------|--3----------0---------|--2-----------2--------*||--0--0--0--0--0-----------|-------------2---------|--3-----------2---------||--------------3--3--3--3--|--1----------3---------|--------------0---------||
--5--5------5--5------|--------------------------|-------------------------|--5--5------5--5------|--3-----1--3--------------|-----1---------------5s--|--5--5------5--5------|--------------2-----0-----|--2-----0--2-------------|----------------------|-----3-----------0-----0--|--------------2----------|--0--0------0--0------|--------------------------|--3----------------------|----------------------|--1-----------3-----------|--------------0----------|
----------------------------------------|-------------------||-----3----------------------------------|-------------------||----------------------------------------|--2----------------||--------------<>12----------------------|--2----------------||--<>12--<>12---------<>3-<>12----<>3----|--0----------------||----------------------------------------|-------------------||
Tap to rate this tab
 
# A B C D E F G H I J K L M N O P Q R S T U V W X Y Z