Toten Hosen - Alles Aus Liebe2 tab

ALLES AUS LIEBE - DIE TOTEN HOSEN

CE ||--------------------------------------------|B ||-----1--------------------1-----------------|G ||------------0--------------------0----------|D ||--------2---------2----------2--------------|A ||-3--------------------3--------------3--2---|E ||--------------------------------------------|
AmE ||--------------------------------------------|B ||-----1--------------------1-----------------|G ||------------2--------------------2----------|D ||--------2---------2----------2--------------|A ||-0--------------------0---------------------|E ||-------------------------------------5--0---|
FE ||-----1--------------------1----------------|B ||------------1--------------------1---------|G ||-------------------------------------------|D ||--------3---------3----------3-------------|A ||-------------------------------------------|E ||-1--------------------1----------------5---|
GE ||-----3--------------------1-----------------|B ||------------0--------------------0----------|G ||--------0---------0----------0--------------|D ||--------------------------------------------|A ||-------------------------------------0--2---|E ||-3--------------------3---------------------|
C Am Ich w?rde dir gern sagen, wie sehr ich Dich mag F G Warum ich nur noch an Dich denken kann C Am Ich f?hl? mich wie verhext und in Gefangenschaft F G Und Du allein tr?gst Schuld daran Am F Worte sind daf?r zu schwach G E Ich bef?rchte Du glaubst mir nicht Am F Mir kommt es vor als ob mich jemand warnt: G Dieses M?rchen wird nicht gut ausgehn C Am Es ist die Eifersucht, die mich auffri?t F G Immer dann, wenn Du nicht in meiner N?he bist C Am Von Dr. Jekyll werd? ich zu Mr. Hyde F G Ich kann nichts dagegen tun, pl?tzlich ist es so weit Am F Ich bin kurz davor, durchzudreh?n G E Aus Angst dich zu verliern Am F Und da? und jetzt kein Ungl?ck geschieht G Daf?r kann ich nicht garantier?n C E Am G Und alles nur, weil ich dich liebe C F G und ich nicht wei? wie ich?s beweisen soll C E Am F Komm ich zeig dir wir gro? meine Liebe ist G C Und bringe mich f?r dich um. C Am Sobald deine Laune etwas schlechter ist F G Bild? ich mir gleich ein, da? Du mich nicht mehr willst C Am Ich sterbe beim Gedanken daran, F G Da? ich Dich nicht f?r immer halten kann Am F Auf einmal brennt ein Feuer in mir G E Und der Rest der Welt wird schwarz Am F Ich sp?r wie unsere Zeit verrinnt, G Wir n?hern uns dem letzten Akt C E Am G Und alles nur, weil ich dich liebe C F G und ich nicht wei? wie ich?s beweisen soll C E Am F Komm ich zeig dir wir gro? meine Liebe ist G C Und bringe mich f?r dich um. Solo
E |--------------------------------8---|B |-1----------------3-------------8---|G |-0----------------0-----------------|D |------------------------------------|A |------------------------------------|E |------------------------------------|
|-8---8--8---8---8--------------------8---||-8---8--8---8---8--------------------8---||-------------------5---5-----------------||-------------------5---5-----------------||-----------------------------------------||-----------------------------------------|
|-8---8--8---8---8--------------------8---||-8---8--8---8---8--------------------6---||-------------------5---5-----------------||-------------------5---5-----------------||-----------------------------------------||-----------------------------------------|
|-8---8--8---8---8--------------------8---||-6---6--6---6---6--------------------6---||-------------------5---5-----------------||-------------------3---3-----------------||-----------------------------------------||-----------------------------------------|
|-3---3--3---3---3--3---3---7--7---7b---7--12---||-3---3--3---3---3--3---3---3--3---3b---3--8----||-----------------------------------------------||-----------------------------------------------||-----------------------------------------------||-----------------------------------------------|
|-12---12--12---12---12--8---8-------------12---||-8----8---8----8----8---------------------10---||------------------------9---9------------------||-----------------------------------------------||-----------------------------------------------||-----------------------------------------------|
|-12---12--12---12---12--0----0--------------12---||-10---10--10---10---10--10---10------------------||--------------------------------------------10---||-------------------------------------------------||-------------------------------------------------||-------------------------------------------------|
|-12---12--12v---12---12v------------------------7---||--------------------------10v---10v-------------8---||-10---10--10v---10---10v--10v---10v-----------------||----------------------------------------------------||----------------------------------------------------||----------------------------------------------------|
|-7---7--7---7---7--7---7b---7--7---7b---7------||-8---8--8---8---8--8---3b---3--3---3b---3--3---||-------------------------------------------0---||-----------------------------------------------||-----------------------------------------------||-----------------------------------------------|
|-5--------|||----------|||----------|||-7--------|||----------|||----------||
Am F Ich bin kurz davor, durchzudreh?n G E Aus Angst dich zu verlier?n Am F Und da? und jetzt kein Ungl?ck geschieht G Daf?r kann ich nicht garantier?n C E Am G Und alles nur, weil ich dich liebe C F G und ich nicht wei? wie ich?s beweisen soll C E Am F Komm ich zeig dir wir gro? meine Liebe ist G C Und bringe mich f?r dich um. C E Am G Und alles nur, weil ich dich liebe C F G und ich nicht wei? wie ich?s beweisen soll C E Am F Komm ich zeig dir wir gro? meine Liebe ist G C Und bringe mich f?r dich um. C E Am F Komm ich zeig dir wir gro? meine Liebe ist G C Und bringe mich f?r dich um.
Tap to rate this tab
 
# A B C D E F G H I J K L M N O P Q R S T U V W X Y Z