Toxik - Social Overlord tab

song is actually called "social overload"

originally tabbed by metalthrashingm

Gtr I (E A D G B E) - 'Guitar I'
Gtr II (E A D G B E) - 'Guitar II'
Gtr III (E A D G B E) - 'Fill'
Gtr IV (E A D G B E) - 'Fill'
Gtr V (E A D G B E) - 'Solo'



 Intro
  Q=185
  E5                  G5
 4/4
  Gtrs I, II
                            \1/            \1/
      PM    PM
|-------------|------------------------------------------------||-------------|------------------------------------------------||-------------|------------------------------------------------||-2-2---2-2---|-2-2-2--5---(5)------------(5)------------------||-2-2---2-2---|-2-2-2--5---(5)------------(5)------------------||-0-0---0-0---|-0-0-0--3---(3)------------(3)------------------|
|
| Gtr III| \1/ \1/ \1/|-------------|------------------------------------------------||-------------|------------------------------------------------||-------------|------------[7]------------(7)--(7)--------(7)--||-------------|------------------------------------------------||-------------|------------------------------------------------||-------------|------------------------------------------------|
|
| Gtr IV| \1/ \1/ \1/ \1/ \2.5|-------------|------------------------------------------------||-------------|------------------------------------------------||-------------|------------------------------------------------||-------------|-------[5]--(5)--(5)--(5)--(5)-------(5)--------||-------------|------------------------------------------------||-------------|------------------------------------------------|
E5 PM PM|-------------|----------------------------|||-------------|----------------------------|||-------------|----------------------------|||-2-2---2-2---|-2-2-2----------------------|||-2-2---2-2---|-2-2-2----------------------|||-0-0---0-0---|-0-0-0----------------------||
|
| \2.5___________________|-------------|----------------------------|||-------------|----------------------------|||-------------|----------------------------|||-------------|----------------------------|||-------------|----------------------------|||-------------|-------0------(0)b2r=(0)----||
|
| \2.5|-------------|----------------------------|||-------------|----------------------------|||-------------|----------------------------|||-------------|----------------------------|||-------------|----------------------------|||-------------|-------0--------------------||
Chorus N.C. Gtrs I, II PM| PM PM| PM| PM| PM PM| PM|||----------------|-------------------|---------------|-------------------|||o---------------|-------------------|---------------|-------------------|||----------------|-------------------|---------------|-----12------12-13-|||----------7-----|-----12------14-13-|---------7-----|-------------------|||o-----5---5--8--|-----10------12-11-|-----5---5--8--|-----10------10-11-|||--0-0-3-0----6--|-0-0-----0-0-------|-0-0-3-0----6--|-0-0-----0-0-------|
PM| PM PM| PM| PM| PM PM--------||---------------|-------------------|---------------|-------------|--------|||---------------|-------------------|---------------|-------------|--------|||---------------|-------------------|---------------|-------------|--------|||---------7-----|-----12------14-13-|---------7-----|-2-2---2-2---|-2------|||-----5---5--8--|-----10------12-11-|-----5---5--8--|-2-2---2-2---|-2------|||-0-0-3-0----6--|-0-0-----0-0-------|-0-0-3-0----6--|-0-0---0-0---|-0------||
Verse F#5 F#5/N.C. PM----||----------|------------|-----------------|------------------||----------|------------|-----------------|------------------||----------|-6---6---7--|-----------------|------------------||-4--------|-4---6---7--|-----------------|------------------||-4--------|-4----------|-----------------|---------4-2------||-2--------|------------|-2-2-2-2-2-2-2-0-|-2-5-4-2-----5-4--|
F#5 G E5 G5 F#5 N.C. Gtr I PM||------------|------------|-------------------|------------------||------------|------------|-------------------|------------------||------------|------------|-------------------|------------------||-----4------|-5---2---5--|-x-4-4-------(4)---|------------------||-----4------|-2---2---5--|-x-4-4-------(4)---|---------4-2------||-2-2-2------|-3---0---3--|-x-2-2-------(2)-0-|-2-5-4-2-----5-4--|
|
| Gtr II| PM| PM----------||------------|------------|-------------------|------------------||------------|------------|-------------------|------------------||------------|------------|-------------------|------------------||-----4------|-5---2---5--|-------------------|------------------||-----4------|-2---2---5--|-------------------|---------4-2------||-2-2-2------|-3---0---3--|-2-2-2-2-2-2--2--0-|-2-5-4-2-----5-4--|
Gtrs I, II ~~~ ~|--------------------|----------------|------------------|------------------||----[3]----(3)-/12\-|----------------|------------------|------------------||--------------------|----------------|------------------|------------------||--------------------|-4---[5]---[2]--|------------------|------------------||--------------------|----------------|-/4b5---4b5r==2---|---------4-2------||-2------------------|----------------|----------------0-|-2-5-4-2-----5-4--|
1. F#5 G G#5 F#F#5 N.C.|------------|------------|------------------|-------------------|||------------|------------|------------------|------------------o|||------------|------------|---11-11----------|-------------------|||-----4------|-4---5---6--|-4-11-11----------|-------------------|||-4-2-4------|-4---2---6--|-4-/9--9----------|---5-4-2-0--------o|||-2-0-2------|-2---3---4--|-2----------/14\--|-2---------4-2-1---||
2. F#5 G G#5 F#5 N.C. \2|------------|------------|---------------------|---------------|||------------|------------|---------------------|-[3]-----------|||------------|------------|-11-11-11-11---------|---------------|||-----4------|-4---5---6--|-11-11-11-11---------|---------------|||-4-2-4------|-4---2---6--|--9--9--9--9---------|---------------|||-2-0-2------|-2---3---4--|----------------/14\-|----------x\---||
Chorus N.C. PM| PM PM| PM| PM| PM PM| PM||---------------|-------------------|---------------|--------------------||---------------|-------------------|---------------|--------------------||---------------|-------------------|---------------|-----12------12-13--||---------7-----|-----12------14-13-|---------7-----|--------------------||-----5---5--8--|-----10------12-11-|-----5---5--8--|-----10------10-11--||-0-0-3-0----6--|-0-0-----0-0-------|-0-0-3-0----6--|-0-0-----0-0--------|
PM| PM PM| PM| PM| PM PM PM|---------------|-------------------|---------------|-------------|--------|||---------------|-------------------|---------------|-------------|--------|||---------------|-------------------|---------------|-------------|--------|||---------7-----|-----12------14-13-|---------7-----|-2-2---2-2---|-2------|||-----5---5--8--|-----10------12-11-|-----5---5--8--|-2-2---2-2---|-2------|||-0-0-3-0----6--|-0-0-----0-0-------|-0-0-3-0----6--|-0-0---0-0---|-0------||
Interlude N.C.|-----------|-----------------|-----------|------------------||-----------|-----------------|-----------|------------------||-----------|-----------------|-----------|------------------||-----------|-----------------|-----------|------------------||-4-5-------|-4-5-1-2-4-2-1-2-|-4-5-------|-4-5-1-2-4-2-1-2--||-2-3-------|-2-3-------------|-2-3-------|-2-3--------------|
|-----------|-----------------|-------------|------------|||-----------|-----------------|-------------|------------|||-----------|-----------------|-------------|------------|||-----------|-----------------|-------------|------------|||-4-5-------|-4-5-1-2-4-2-1-2-|-4-5---4-5---|-4-5--------|||-2-3-------|-2-3-------------|-2-3---2-3---|-2-3--------||
Solo N.C. Gtrs I, II PM--------------||---------------------|---------------------||---------------------|---------------------||---------------------|---------------------||---------------------|---------------------||--4--5---------------|---------1-2-4-2-1-2-||--2--3---------------|---2---3-------------|
|
| Gtr V| \1.5|---------------------|---------------------||---------------------|---------------------||-------------<9>-----|-(<9>)---------------||--------<7>----------|---------------------||-<7>-----------------|---------------------||---------------------|---------------------|
PM--------------||-------------------------|-------------------------||-------------------------|-------------------------||-------------------------|-------------------------||-------------------------|-------------------------||--4---5------------------|-------1--2-4-2-1---2----||--2---3------------------|--2--3-------------------|
|
|-17-(17)b19-17-19-15\----|-------------------------||-------------------------|-19-17---15-------(15)\--||-------------------------|-------------------------||-------------------------|-------------------------||-------------------------|-------------------------||-------------------------|-------------------------|
|---------------------------------||---------------------------------||---------------------------------||---------------------------------||-4---5---------------------------||-2---3---------------------------|
|
| T T T T T T T T|-4p1h4p1h5p2h5p2h7p3h7p3h8p4h8p4h||---------------------------------||---------------------------------||---------------------------------||---------------------------------||---------------------------------|
PM-----------------------------------||---------------------------------------------||---------------------------------------------||---------------------------------------------||---------------------------------------------||------------1----2----4-----2-----1-----2----||--2----3-------------------------------------|
|
| T T T T T T T T|-10p6h10p6h11p7h11p7h13p10h13p10h14p11h14p11-||---------------------------------------------||---------------------------------------------||---------------------------------------------||---------------------------------------------||---------------------------------------------|
|-------------------------------------------------||-------------------------------------------------||-------------------------------------------------||-------------------------------------------------||--4-----5----------------------------------------||--2-----3----------------------------------------|
|
| T T T T T T T T|-16p13h16p13h17p14h17p14h19p15h19p15h21p17h24p20h||-------------------------------------------------||-------------------------------------------------||-------------------------------------------------||-------------------------------------------------||-------------------------------------------------|
PM-----------------------------||------------------------------------||------------------------------------||------------------------------------||------------------------------------||--------------1-----2-----4--2-1-2--||--2-----3---------------------------|
|
| T T T T T|-24p20h24p20h24p20h24p20h24\--------||------------------------------------||------------------------------------||------------------------------------||------------------------------------||------------------------------------|
PM---| PM--||-------------------|---------------------||-------------------|---------------------||-------------------|---------------------||------------------|---------5--------7--||--8-----3-------2--|---------3--------5--||--6-----1-------0--|--0--0-0----0-0-0----|
|
| \2.5|-------------------|---------------------||-------------------|---------------------||-15--10----9-------|-(9)-----------------||-------------------|---------------------||-------------------|---------------------||-------------------|---------------------|
PM---| PM--||------------------|------------------------||------------------|------------------------||------------------|------------------------||------------------|----------5--------7----||--8-----3------2--|----------3--------5----||--6-----1------0--|---0--0-0----0-0-0------|
|
| ~~~~~~~~~~~~|------------------|------------------------||-----------/17----|-(17)-------------------||-15--10-----------|------------------------||------------------|------------------------||------------------|------------------------||------------------|------------------------|
PM----| PM---||------------------|--------------------------||------------------|--------------------------||------------------|--------------------------||------------------|-----------5-----------7--||--8-----3------2--|-----------3-----------5--||--6-----1------0--|--0---0-0-------0--0-0----|
|
| \2_______/|------------------|--------------------------||------------------|--------------------------||-15--10----[9]----|-(9)------(9)--(9)--------||------------------|--------------------------||------------------|--------------------------||------------------|--------------------------|
\2.5|---------------------|-------------------|||---------------------|-------------------|||---------------------|-------------------|||---------------------|-------------------|||--8-----3---------2--|-------------/9\---|||--6-----1---------0--|--(0)--------------||
|
| \1.5|---------------------|-------------------|||-----------/17-------|-(17)--------------|||-15--10--------------|-------------------|||---------------------|-------------------|||---------------------|-------------------|||---------------------|-------------------||
Verse F#5 F#5/N.C. Gtrs I, II PM----||----------|------------|-----------------|------------------||----------|------------|-----------------|------------------||----------|-6---6---7--|-----------------|------------------||-4--------|-4---6---7--|-----------------|------------------||-4--------|-4----------|-----------------|---------4-2------||-2--------|------------|-2-2-2-2-2-2-2-0-|-2-5-4-2-----5-4--|
F#5 G E5 G5 F#5 N.C. Gtr I PM||------------|------------|-------------------|------------------||------------|------------|-------------------|------------------||------------|------------|-------------------|------------------||-----4------|-5---2---5--|-x-4-4-------(4)---|------------------||-----4------|-2---2---5--|-x-4-4-------(4)---|---------4-2------||-2-2-2------|-3---0---3--|-x-2-2-------(2)-0-|-2-5-4-2-----5-4--|
|
| Gtr II| PM| PM----------||------------|------------|-------------------|------------------||------------|------------|-------------------|------------------||------------|------------|-------------------|------------------||-----4------|-5---2---5--|-------------------|------------------||-----4------|-2---2---5--|-------------------|---------4-2------||-2-2-2------|-3---0---3--|-2-2-2-2-2-2--2--0-|-2-5-4-2-----5-4--|
Gtrs I, II \1.5/ ~~~|--------------------|----------------||----[3]----(3)-/12\-|----------------||--------------------|----------------||--------------------|-4---5-------2--||--------------------|----------------||-2------------------|----------------|
\1.5/ \1.5/|--------------------------|------------------||--------------------------|------------------||--------------------------|------------------||--------------------------|------------------||-4--(4)----(4)----(4)-----|---------4-2------||------------------------0-|-2-5-4-2-----5-4--|
F#5 G G#5 F#5 N.C. \1.5|------------|------------|---------------------|-------------------|||------------|------------|---------------------|-[3]pb7============|||------------|------------|-11-11-11-11---------|-------------------|||-----4------|-4---5---6--|-11-11-11-11---------|-------------------|||-4-2-4------|-4---2---6--|--9--9--9--9---------|-------------------|||-2-0-2------|-2---3---4--|----------------/14\-|--------------x\---||
Chorus N.C. PM| PM PM| PM| PM| PM PM| PM||---------------|-------------------|---------------|--------------------||---------------|-------------------|---------------|--------------------||---------------|-------------------|---------------|-----12------12-13--||---------7-----|-----12------14-13-|---------7-----|--------------------||-----5---5--8--|-----10------12-11-|-----5---5--8--|-----10------10-11--||-0-0-3-0----6--|-0-0-----0-0-------|-0-0-3-0----6--|-0-0-----0-0--------|
PM| PM PM| PM||---------------|-------------------||---------------|-------------------||---------------|-------------------||---------7-----|-----12------14-13-||-----5---5--8--|-----10------12-11-||-0-0-3-0----6--|-0-0-----0-0-------|
PM| PM PM--------||---------------|-------------|------------|||---------------|-------------|------------|||---------------|-------------|------------|||---------7-----|-2-2---2-2---|-2----------|||-----5---5--8--|-2-2---2-2---|-2----------|||-0-0-3-0----6--|-0-0---0-0---|-0----------||
Bridge Q=230 N.C. \2.5 PM-----------------------------------||-------------|-------------|-------------|---------||-------------|-------------|-------------|---------||-------------|-------------|-------------|---------||-2--2--2--2--|-2--2--2--2--|-2--2--2--2--|---------||-2--2--2--2--|-2--2--2--2--|-2--2--2--2--|---------||-------------|-------------|-------------|-0-------|
$||------------------|-----------------|-----------------|||o-----------------|-----------------|-----------------|||------------------|-----------------|-----------------|||--2-2-2-2-2-2-2-5-|-2-2-2-2-2-2-5-4-|-2-2-2-2-2-2-2-5-|||o-2-2-2-2-2-2-2-5-|-2-2-2-2-2-2-5-4-|-2-2-2-2-2-2-2-5-|||------------------|-----------------|-----------------|
1. 2. D.S. E5F5/CE5F5/C E5/B F5|------------------------||-------------|--------------|||-----------------------o||-------------|----------6---|||-------------------4-2--||-4-5---4-5---|-4--4--4--5---|||-2h3p0-2h3p0-2h3p0-4-2--||-2-3---2-3---|-2--2--2--3---|||-2h3p0-2h3p0-2h3p0-----o||-2-3---2-3---|-2--2--2------|||------------------------||-------------|--------------||
Solo N.C. Gtrs I, II|---------------|-----------------|---------------|------------------||---------------|-----------------|---------------|------------------||---------------|-----------------|---------------|------------------||---------------|-----------------|---------------|------------------||---5------5----|---5-4-5-6-5-4-5-|---5------5----|---5-4-5-6-5-4-5--||-3---6--3---6--|-3---------------|-3---6--3---6--|-3----------------|
|
| Gtr V|---------------|-----------------|---------------|------------------||---------------|-----------------|---------------|------------------||---------------|-----------------|---------------|------------------||---------------|-----------------|---------------|------------------||---5------5----|---5-4-5-6-5-4-5-|---5------5----|---5-4-5-6-5-4-5--||-3---6--3---6--|-3---------------|-3---6--3---6--|-3----------------|
Gtrs I, II ~ ~|---------------|------------------------||---------------|------------------------||---------------|------------------------||-0-8-7--0-8-7--|-0-8-7-8-10-----8--7--8-||---------------|------------------------||---------------|------------------------|
|
| Gtr V| ~ ~|---------------|------------------------||---------------|------------------------||---------------|------------------------||-0-8-7--0-8-7--|---8-7-8--7s10----------||---------------|-5-------------13-12-13-||---------------|------------------------|
~~ ~~|-----------------------------------------||-----------------------------------------||-----------------------------------------||--0----8-----7--------0----8-----7-------||-----------------------------------------||-----------------------------------------|
|
|-----------------------------------------||-----------------------------------------||------------14------------------14-15-17-||-13-15---17----17-15-13-15---17----------||-----------------------------------------||-----------------------------------------|
|---------------------------------||---------------------------------||---------------------------------||--0----8-----7----8----10-8-7--8-||---------------------------------||---------------------------------|
|
| ~~|---------------------------------||------------15-16p==15--------16-||-14-15---17------------15--------||---------------------------------||---------------------------------||---------------------------------|
|--------------------------|-------------------------------||--------------------------|-------------------------------||--------------------------|-------------------------------||--------------------------|-------------------------------||------5-----------5-------|---------5-4---5---6--5----4-5-||--3---------6--3-----6----|---3---------------------------|
|
|-----------------15-17-17-|-(17)b19r====(17)-15-----------||-18-(18)b20---------------|---------------------18b20-----||--------------------------|-------------------------------||--------------------------|-------------------------------||--------------------------|-------------------------------||--------------------------|-------------------------------|
|-----------------------------------------||-----------------------------------------||-----------------------------------------||-----------------------------------------||-------5-------------------5-------------||--3----------6--------3----------6-------|
|
|-----------------------------------------||-15h16p==15----15------------------------||------------17----17-15-17---15-14-15-14-||-----------------------------------------||-----------------------------------------||-----------------------------------------|
~~~ ~~|------------------------------|------------------------------------------||------------------------------|------------------------------------------||------------------------------|------------------------------------------||------------------------------|--0----8-----7--------0----8-----7--------||-------5-----4--5--6----5-4-5-|------------------------------------------||--3---------------------------|------------------------------------------|
|
| T|------------------------------|-15h17h==18h20p18p17-15-------------------||----15h==16h18-16-18b20-------|------------------------18---16-15-16-15--||-17---------------------------|------------------------------------------||------------------------------|------------------------------------------||------------------------------|------------------------------------------||------------------------------|------------------------------------------|
|---------------------------------------------||---------------------------------------------||---------------------------------------------||--0----8-----7----8----10----8-----7----8----||---------------------------------------------||---------------------------------------------|
|
|---------------------------------------------||----15---------------------------------------||-17------17-15-17---15-14-15---14----14------||----------------------------------17------17-||---------------------------------------------||---------------------------------------------|
~~ ~~|-----------------------------------------|------------------------------------||-----------------------------------------|------------------------------------||-----------------------------------------|------------------------------------||--0----8-----7--------0----8-----7-------|--0----8-----7----8-----10--8-7-8---||-----------------------------------------|------------------------------------||-----------------------------------------|------------------------------------|
|
| ~~~~|-----------------------------------------|------------------------------------||-----------------------------------------|------------------------------------||-----------------------------------------|-----------------------[12]---------||-15-17---15-13-15-13-12-13---12----12----|------------12-13---15--------------||--------------------------------15----15-|-12-13---15-------------------------||-----------------------------------------|------------------------------------|
Q Gtrs I, II|-------------11----------|-------------11----------||----15-14-15----15-14-15-|----15-14-15----15-14-15-||-12----------------------|-12----------------------||-------------------------|-------------------------||-------------------------|-------------------------||-------------------------|-------------------------|
=180 Q=155|-------------11----------|---------------5--||----15-14-15----15-14-15-|-16---10--<7>-----||-12----------------------|------------------||-------------------------|------------------||-------------------------|------------------||-------------------------|------------------|
\2_____/ ~~~|-----------------------|-----|||-[3]---([3])--(3)------|-----|||-----------------------|-----|||-----------------------|-----|||-----------------------|-----|||-----------------------|-----||
Chorus Q=185 N.C. PM| PM PM| PM| PM| PM PM| PM||---------------|-------------------|---------------|--------------------||---------------|-------------------|---------------|--------------------||---------------|-------------------|---------------|-----12------12-13--||---------7-----|-----12------14-13-|---------7-----|--------------------||-----5---5--8--|-----10------12-11-|-----5---5--8--|-----10------10-11--||-0-0-3-0----6--|-0-0-----0-0-------|-0-0-3-0----6--|-0-0-----0-0--------|
PM| PM PM| PM| PM| PM|---------------|-------------------|---------------||---------------|-------------------|---------------||---------------|-------------------|---------------||---------7-----|-----12------14-13-|---------7-----||-----5---5--8--|-----10------12-11-|-----5---5--8--||-0-0-3-0----6--|-0-0-----0-0-------|-0-0-3-0----6--|
Outro N.C. PM--| PM--|
3x||-------------|--------------------||||o------------|-------------------o||||-------------|--------------------||||-------------|-------5--------7---||||o-8---3---2--|-------3--------5--o||||--6---1---0--|-0-0-0----0-0-0-----||
PM---------| PM--------||----------|----------|-------------|--------*||----------|----------|-------------|--------*||----------|----------|-------------|--------*||----------|----------|-2-2---2-2---|-2------*||-8--------|-3--------|-2-2---2-2---|-2------*||-6--------|-1--------|-0-0---0-0---|-0------*|
Tablature Legend ---------------- h - hammer-on p - pull-off b - bend pb - pre-bend r - bend release (if no number after the r, then release immediately) / - slide into or out of (from/to "nowhere") s - legato slide S - shift slide - natural harmonic [n] - artificial harmonic n(n) - tapped harmonic ~ - vibrato tr - trill T - tap TP - trem. picking PM - palm muting n/ - tremolo bar dip; n = amount to dip n - tremolo bar down n/ - tremolo bar up /n - tremolo bar inverted dip = - hold bend; also acts as connecting device for hammers/pulls <> - volume swell (louder/softer) x - on rhythm slash represents muted slash o - on rhythm slash represents single note slash Misc Legend ----------- | - bar || - double bar ||o - repeat start o|| - repeat end *| - double bar (ending) : - bar (freetime) $ - Segno & - Coda Tempo markers - = BPM(8/16=s8/s16), where s8 = swing 8ths, s16 = swing 16ths
Tap to rate this tab
 
# A B C D E F G H I J K L M N O P Q R S T U V W X Y Z