Trans Siberian Orchestra – Carol Of The Bells tab ver. 5

Carol of The Bells
By
Trans-Siberian Orchestra

I did this pretty quick so forgive me if theirs somethings misspelled.
All in all though Im 99% sure this is all correct

For 1 Guitar

Clean

:--0-3-2-----]:-0----------]:------------]:------------] X-4:------------]:------------]
:-------------------------------------]:-------------------------------------]:-------------------------------------]:-----9-9-7------------------7-9------] X-1:---7-------10-9-7----7-9-10----------]:-7-----------------7-----------------]
:-------------------------------------]:-------------------------------------]:-------------------------------------]:-----9-9-7---------------------------] X-2 Pause Inbetween the two:---7-------10-9-7----7---------------]:-7-----------------7-----------------]
Switch to Heavy Distortion Walk Down section
:---------------------------]:-~--~-----------2----------]:-9--7---~--~----2----------]:-------10--9---------------] X-2:---------------------------]:---------------------------]
:-----------------] :-----------------] :--8-7-8----------] :--------9--------] X-4 :-----------------] :-----------------]
:----------------]:-12-10-12-------]:----------12----]:----------------] X-4:----------------]:----------------]
Harmony Section
:--12-12-12-10----------------------------------------------]:--------------13-12-12-12--10----10-10-10-12-10------------]:------------------------------12----------------9---9---9--]:-----------------------------------------------------------] :-----------------------------------------------------------]:-----------------------------------------------------------]
:----------------------------------]:-----------------10-12-10---------]:---------9-11-12----------12------]:-9-11-12--------------------------]X-2 :----------------------------------]:----------------------------------]
:------------------] Then E:---12----] after the 4th time:---------9-11-12--] :-9-11-12----------]X-4 :------------------] :------------------] :------------------]
:-----------------------------------]:---------------------------------2-]:-9-9-7---------------------------2-]X-2:-------10-10-9-7-9-7---------------]:---------------------10-10-9-7-----]:-----------------------------------]
Piano Interlood Wait, then
Walk Down:----------------]:-~--~-----------]:-9--7---~--~----]:-------10--9----] X-4:----------------]:----------------]Harmony Section
:--12-12-12-10----------------------------------------------]:--------------13-12-12-12--10----10-10-10-12-10------------]:------------------------------12----------------9---9---9--]:-----------------------------------------------------------] :-----------------------------------------------------------]:-----------------------------------------------------------]
:----------------------------------]:-----------------10-12-10---------]:---------9-11-12----------12------]:-9-11-12--------------------------]X-2 :----------------------------------]:----------------------------------] Abrupt stop
:-----------------] :-----------------] :--8-7-8----------] :--------9--------] X-1 then X-4 :-----------------] :-----------------]
:----------------]:-12-10-12-------]:----------12----]:----------------] X-4:----------------]:----------------]
:--12-12-12-10----------------------------------------------]:--------------13-12-12-12--10----10-10-10-12-10------------]:------------------------------12----------------9---9---9--]:-----------------------------------------------------------] :-----------------------------------------------------------]:-----------------------------------------------------------]
:----------------------------------]:-----------------10-12-10---------]:---------9-11-12----------12------]:-9-11-12--------------------------]X-2 :----------------------------------]:----------------------------------]
:------------------] :---------9-11-12--] :-9-11-12----------]X-4 :------------------] :------------------] :------------------]
:---------------------] :---------------------] :-Hold these out long-]X-8 :-2-------------------] :-2-------------------] :---------------------]
:-----Abroto/mute-----] :---------------------] :---------------------]X-12 Then after all 12 do it one more time but hold it :-2-------------------] :-2-------------------] :---------------------]
Please rate this tab:
x1.0