Treble Charger - How She Died tab

Treble Charer-"How She Died"
from the album "Maybe It's Me", 1997.
words and music by Greig Nori, Rosie Martin, Bill Priddle,
		   Mike Levesque
tabbed by: Jd_dude


Intro-Fig. 1Gtr. 1 clean *overdrive|---------3-------------------------------3-----------------||-----5-----5-------------------------5-----5---------------||---5---5-----5---------------------5---5-----5-------------||-5-------------5-5-5-5-5-3-3-3-x-5-------------5-5-5-5-5-3-||-----------------5-5-5-5-3-3-3-0-----------------5-5-5-5-3-||-----------------3-3-3-3-1-1-1-0-----------------3-3-3-3-1-|
*distortion|-----------------------------------------------------||--------------13----------------------------------13-||--------11^12----12^14^12-9h12--9h10p9-7-5--11^12----||-3-3-------------------------------------------------||-3-3-------------------------------------------------||-1-1-------------------------------------------------|
|-----------------------------------------------------------||-----------------------------------------------------------||-12^14^12-9h12--9h10p9-7-5---------------------------------||-----------------------------------------------------------||-----------------------------------------------------------||-----------------------------------------------------------|
Gtr. 2 clean *overdrive|-----------------------------------------------------------||-----5-------5-----------------------5-------5-------------||-----5-------5-----------------------5-------5-------------||-5-5---5-3-3-----5-5-5-5-3-3-3-x-5-5---5-3-3---5-5-5-5-3-3-||-3-3---3-3-3-----5-5-5-5-3-3-3-0-3-3---3-3-3---5-5-5-5-3-3-||-----------------3-3-3-3-1-1-1-0---------------3-3-3-3-1-1-|
|-----------------------------------------------------------||-----5-5-5-5-5-5-5-5-----------------5-5-5-5-5-5-5-5-------||-----5-5-5-5-5-5-5-5-4-4-4-4-2-2-2-2-5-5-5-5-5-5-5-5-4-4-4-||-3-3-5-5-5-5-3-3-3-3-5-5-5-5-3-3-3-3-5-5-5-5-3-3-3-3-5-5-5-||-3-3-3-3-3-3-3-3-3-3-5-5-5-5-3-3-3-3-3-3-3-3-3-3-3-3-5-5-5-||-1-1-----------------3-3-3-3-1-1-1-1-----------------3-3-3-|
|-----------------------------------------------------------||-----------------------------------------------------------||-4-2-2-2-2-------------------------------------------------||-5-3-3-3-3-------------------------------------------------||-5-3-3-3-3-------------------------------------------------||-3-1-1-1-1-------------------------------------------------|
Verse-Fig. 2Gtr. 1 overdrivePlay fifteen times then hit dist. pedal cranked w/ feedback|-----------------------------------------------------------||-13-13-13-13-----------------------------------------------||-12-12-12-12-----------------------------------------------||-10-10-10-10-----------------------------------------------||-10-10-10-10-----------------------------------------------||-----------------------------------------------------------|
Gtr. 2 w/ overdrivePlay four times|-----------------------------------------------------------||-5-5-5-5---------------------------------------------------||-5-5-5-5-1-1-1-1-2-2-2-2-5-5-5-0---------------------------||-5-5-5-5-2-2-2-2-3-3-3-3-6-6-6-0---------------------------||-3-3-3-3-2-2-2-2-3-3-3-3-6-6-6-0---------------------------||---------0-0-0-0-1-1-1-1-4-4-4-x---------------------------|
Bridge-Fig. 3Gtr. 1+2 w/ dist.|-----------------------------------------------------------||-8-8-8-8-8----8--8-8-8-8-8-8-x-----------------------------||-8-8-8-8-8----8--8-8-8-8-8-8-x-----------------------------||-8-8-8-8-8----8--8-8-8-8-8-8-x-----------------------------||-6-6-6-6-6----6--6-6-6-6-6-6-x-----------------------------||-----------------------------------------------------------|
Chorus-Fig. 4Gtr. 1+2 w/ dist.|-----------------------------------------------------------||-----------------------------------------------------------||-----------------8-8-8-8-8-8-8-8-----------------8-8-8-8-8-||-8-8-8-8-6-6-6-6-8-8-8-8-8-8-8-8-8-8-8-8-6-6-6-6-8-8-8-8-8-||-8-8-8-8-6-6-6-6-6-6-6-6-6-6-6-6-8-8-8-8-6-6-6-6-6-6-6-6-6-||-6-6-6-6-4-4-4-4-----------------6-6-6-6-4-4-4-4-----------|
|-----------------------------------------------------------||-----------------------------------------------------------||-----------------8-8-8-8-8-8-8-8---------------------------||-8-8-8-8-6-6-6-6-8-8-8-8-8-8-8-8-8-8-8-8-6-6-6-6-5-5-5-5-5-||-8-8-8-8-6-6-6-6-6-6-6-6-6-6-6-6-8-8-8-8-6-6-6-6-5-5-5-5-5-||-6-6-6-6-4-4-4-4-----------------6-6-6-6-4-4-4-4-3-3-3-3-3-|
|-----------------------------------------------------------||-----------------------------------------------------------||-----------------------------------------------------------||-5-5-5-----------------------------------------------------||-5-5-5-----------------------------------------------------||-3-3-3-----------------------------------------------------|
Interlude-Fig. 5Gtr. 1 w/ dist.|-----------------------6-----------------------------------||-------------------------0-------------------8------8----8-||-------------------5p4----------------------10^12-(12)-(12)||-(8)^7-5-------------------(8)^7-5-------------------------||---------4--3----------------------4--3--------------------||--------------1-3-----------------------1-3----------------|
Gtr. 2 w/ overdrive|-----------------------------------------------------------||-----------------------------------------------------------||---------------------------------------------------------8-||-2-2-2-2-3-3-3-3-5-5-5-5-5-5-5-5-2-2-2-2-3-3-3-3-5-5-5-5-8-||-2-2-2-2-3-3-3-3-5-5-5-5-5-5-5-5-2-2-2-2-3-3-3-3-5-5-5-5-6-||-0-0-0-0-1-1-1-1-3-3-3-3-3-3-3-3-0-0-0-0-1-1-1-1-3-3-3-3---|
|-----------------------------------------------------------||-----------------------------------------------------------||-8-8-8-----------------------------------------------------||-8-8-8-----------------------------------------------------||-6-6-6-----------------------------------------------------||-----------------------------------------------------------|
Fill 2Gtr. 2 w/ dist.Play twice "I see the end..."|-----------------------------------------------------------||------------8----------------------------------------------||----9-9-8-9---9---------9-9-8-9-8-9------------------------||-----------------------------------------------------------||-----------------------------------------------------------||-----------------------------------------------------------|
Out chorus-Fig. 6Gtr. 1+2 w/ dist.|-----------------------------------------------------------||-----------------------------------------------------------||-5-5-5-5-8-8-8-8-----------------5-5-5-5-8-8-8-8-----------||-5-5-5-5-8-8-8-8-8-8-8-8-8-8-8-8-5-5-5-5-8-8-8-8-8-8-8-8-8-||-3-3-3-3-6-6-6-6-8-8-8-8-8-8-8-8-3-3-3-3-6-6-6-6-8-8-8-8-8-||-----------------6-6-6-6-6-6-6-6-----------------6-6-6-6-6-|
|-----------------------------------------------------------||-----------------------------------------------------------||---------------8-8-8-8-------------------------------------||-8-8-8-6-6-6-6-8-8-8-8-8-8-8-8-8-8-8-8-6-6-6-6-6-6-6-6-3-3-||-8-8-8-6-6-6-6-6-6-6-6-8-8-8-8-8-8-8-8-6-6-6-6-6-6-6-6-3-3-||-6-6-6-4-4-4-4---------6-6-6-6-6-6-6-6-4-4-4-4-4-4-4-4-1-1-|
|-----------------------------------------------------------||-----------------------------------------------------------||-----------------------------------------------------------||-3-3-3-3-3-3-----------------------------------------------||-3-3-3-3-3-3-----------------------------------------------||-1-1-1-1-1-1-----------------------------------------------|
Solo-Fig. 7Gtr. 1 w/ dist.|-----------------------------------------------------------||--8------8----8----8----8----13-----13---13---13---13------||-10^12-(12)-(12)-(12)-(12)---15^17-(17)-(17)-(17)-(17)-----||-----------------------------------------------------------||-----------------------------------------------------------||-----------------------------------------------------------|
|-----------------------------------------------------------||--9----x--8----x-6----x-4-------12-15-12-13-12-------------||-11^13-x-10^12-x-8^10-x-6^8^6------------------14-12^13^12-||-----------------------------------------------------------||-----------------------------------------------------------||-----------------------------------------------------------|
|-----------------------------------------------------------||----------------15-----15-----------------------------4----||-10-8-7h8-0h1---18^19-(17)h(18)-16h17---12^13^12-10-8-7^8--||-----------------------------------------------------------||-----------------------------------------------------------||-----------------------------------------------------------|
|-----------------------------------------------------------||-----------------------------------------------------------||-7h8p7h8p7h8p7-3/7---8---12------10---8---8------10---8----||-----------------------------------------------------------||-----------------------------------------------------------||-----------------------------------------------------------|
|-----------------------------------------------------------||-----------------------------------------------------------||-12------10---8---7-7-8-10-12-13-12-8-10---8---12------10--||-----------------------------------------------------------||-----------------------------------------------------------||-----------------------------------------------------------|
|-----------------------------------------------------------||-----------------------------------------------------------||-8---8-7-8-7---------7-10---8---7------6------5------4-----||-------------10-8-10---------------------------------------||-----------------------------------------------------------||-----------------------------------------------------------|====
Tap to rate this tab
 
# A B C D E F G H I J K L M N O P Q R S T U V W X Y Z