Treble Charger - Pilot Light tab

Treble Charger-"Pilot Light"
from the album "nc17", 
words and music by Greig Nori, Rosie Martin, Bill Priddle,
		   Morris Palter

tabbed by: jd dude

Fig. 1Gtr. 1 cleanFirst verse play 7 times, second verse play five times|----------------------------------------------------------||-----0-----0-----0-----0-----0-----0-----0-----0----------||---2-----2-----2-----2-----2-----2-----2-----2------------||-2-----2-----2-----2-----2-----2-----2-----2--------------||----------------------------------------------------------||----------------------------------------------------------|
Gtr. 2 clean|----------------------------------------------------------||----------------------------------------------------------||-9-9-9-9-9-9-7-7-7-7-7-7-9-9-9-9-9-9-7-7-7-7-7-7-9-9-9-9-9||-7-7-7-7-7-7-7-7-7-7-7-7-7-7-7-7-7-7-7-7-7-7-7-7-7-7-7-7-7||----------------------------------------------------------||----------------------------------------------------------|
|----------------------------------------------------------||----------------------------------------------------------||-9-7-7-7-7-7-7-9-9-9-9-9-9-7-7-7-7-7-7-9-9-9-9-9-9-7-7-7-7||-7-7-7-7-7-7-7-7-7-7-7-7-7-7-7-7-7-7-7-7-7-7-7-7-7-7-7-7-7||----------------------------------------------------------||----------------------------------------------------------|
|----------------------------------------------------------||----------------------------------------------------------||-7-7-9-9-9-9-9-9-7-7-7-7-7-7-9-9-9-9-9-9-7-7-7-7-7-7-9-9-9||-7-7-7-7-7-7-7-7-7-7-7-7-7-7-7-7-7-7-7-7-7-7-7-7-7-7-7-7-7||----------------------------------------------------------||----------------------------------------------------------|
|----------------------------------------------------------||----------------------------------------------------------||--11-11-7-7-7-7-7-7-9-9-9-9-9-9-7-7-7-7-7-7-9-9-9-9-9-9-7-||---9--9-7-7-7-7-7-7-7-7-7-7-7-7-7-7-7-7-7-7-7-7-7-7-7-7-7-||----------------------------------------------------------||----------------------------------------------------------|
|----------------------------------------------------------||----------------------------------------------------------||7-7-7-7-7-9-9-9-9-9-9-7-7-7-7-7-7-9-9-9--11-11-7-7-7-7-7-7||7-7-7-7-7-7-7-7-7-7-7-7-7-7-7-7-7-7-7-7---9--9-7-7-7-7-7-7||----------------------------------------------------------||----------------------------------------------------------|
Chorus-Fig. 2Gtr. 1+2 w/ dist.|----------------------------------------------------------||----------------------------------------------------------||-1-1-1-1-1-1-4-4-4-4-4-4-1-1-1-1-1-1-4-4-4-4-4-4-1-1-1-1-1||-2-2-2-2-2-2-5-5-5-5-5-5-2-2-2-2-2-2-5-5-5-5-5-5-2-2-2-2-2||-2-2-2-2-2-2-5-5-5-5-5-5-2-2-2-2-2-2-5-5-5-5-5-5-2-2-2-2-2||-0-0-0-0-0-0-3-3-3-3-3-3-0-0-0-0-0-0-3-3-3-3-3-3-0-0-0-0-0|
|----------------------------------------------------------||----------------------------------------------------------||-1-4-4-4-4-4-4-3-3-3-3-3-3-6-6-6-6-6-6-5-5-5-5-5-5-3-3-3-3||-2-5-5-5-5-5-5-4-4-4-4-4-4-7-7-7-7-7-7-6-6-6-6-6-6-4-4-4-4||-2-5-5-5-5-5-5-4-4-4-4-4-4-7-7-7-7-7-7-6-6-6-6-6-6-4-4-4-4||-0-3-3-3-3-3-3-2-2-2-2-2-2-5-5-5-5-5-5-4-4-4-4-4-4-2-2-2-2|
|----------------------------------------------------------||----------------------------------------------------------||-3-3-6-6-6-6-6-6------------------------------------------||-4-4-7-7-7-7-7-7------------------------------------------||-4-4-7-7-7-7-7-7------------------------------------------||-2-2-5-5-5-5-5-5------------------------------------------|
Interlude-Fig. 3Gtr. 1 w/ dist.|----------------------------------------------------------||-5-----5--5--5--5---5-----5--5--5--5---5-----5--5--5--5---||-7^9--(9)(9)(9)(9)--7^9--(9)(9)(9)(9)--7^9--(9)(9)(9)(9)--||----------------------------------------------------------||----------------------------------------------------------||----------------------------------------------------------|
|----------------------------------------------------------||-5-----5--5--5--5---7------7---7---7---7----7------7---7--||-7^9--(9)(9)(9)(9)--9^11--(11)(11)(11)(11)--9^11--(11)(11)||----------------------------------------------------------||----------------------------------------------------------||----------------------------------------------------------|
|----------------------------------------------------------||-7---7----10------10--10--10--10---10------10--10--10--10-||(11)(11)--12^14--(14)(14)(14)(14)--12^14--(14)(14)(14)(14)||----------------------------------------------------------||----------------------------------------------------------||----------------------------------------------------------|
|----------------------------------------------------------||-5-----5--5--5--5---5-----5--5--5--5---5-----5--5--5--5---||-7^9--(9)(9)(9)(9)--7^9--(9)(9)(9)(9)--7^9--(9)(9)(9)(9)--||----------------------------------------------------------||----------------------------------------------------------||----------------------------------------------------------|
|----------------------------------------------------------||-5-----5--5--5--5---7------7---7---7---7----7------7---7--||-7^9--(9)(9)(9)(9)--9^11--(11)(11)(11)(11)--9^11--(11)(11)||----------------------------------------------------------||----------------------------------------------------------||----------------------------------------------------------|
|----------------------------------------------------------||-7---7----10------10--10--10--10---10------10--10--10--10-||(11)(11)--12^14--(14)(14)(14)(14)--12^14--(14)(14)(14)(14)||----------------------------------------------------------||----------------------------------------------------------||----------------------------------------------------------|
|----------------------------------------------------------||-10------10--10--10--10---10------10--10--10--10---10-----||-12^14--(14)(14)(14)(14)--12^14--(14)(14)(14)(14)--12^14--||----------------------------------------------------------||----------------------------------------------------------||----------------------------------------------------------|
|----------------------------------------------------------||--10--10--10--10---10------10--10--10--10-----------------||-(14)(14)(14)(14)--12^14--(14)(14)(14)(14)----------------||----------------------------------------------------------||----------------------------------------------------------||----------------------------------------------------------|
Gtr. 2 w/ dist.|----------------------------------------------------------||----------------------------------------------------------||-1---1-1-1-1--1---1-1-1-1--1---1-1-1-1--1---1-1-1-1--3---3||-2---2-2-2-2--2---2-2-2-2--2---2-2-2-2--2---2-2-2-2--4---4||-2---2-2-2-2--2---2-2-2-2--2---2-2-2-2--2---2-2-2-2--4---4||-0---0-0-0-0--0---0-0-0-0--0---0-0-0-0--0---0-0-0-0--2---2|
|----------------------------------------------------------||---------------------2---2-2-2-2--2---2-2-2-2-------------||-3-3-3--3---3-3-3-3--2---2-2-2-2--2---2-2-2-2--1---1-1-1-1||-4-4-4--4---4-4-4-4--2---2-2-2-2--2---2-2-2-2--2---2-2-2-2||-4-4-4--4---4-4-4-4--0---0-0-0-0--0---0-0-0-0--2---2-2-2-2||-2-2-2--2---2-2-2-2----------------------------0---0-0-0-0|
|----------------------------------------------------------||----------------------------------------------------------||-1---1-1-1-1--1---1-1-1-1--1---1-1-1-1--3---3-3-3-3--3---3||-2---2-2-2-2--2---2-2-2-2--2---2-2-2-2--4---4-4-4-4--4---4||-2---2-2-2-2--2---2-2-2-2--2---2-2-2-2--4---4-4-4-4--4---4||-0---0-0-0-0--0---0-0-0-0--0---0-0-0-0--2---2-2-2-2--2---2|
|----------------------------------------------------------||--------2---2-2-2-2--2---2-2-2-2--2---2-2-2-2-------------||-3-3-3--2---2-2-2-2--2---2-2-2-2--2---2-2-2-2-------------||-4-4-4--2---2-2-2-2--2---2-2-2-2--2---2-2-2-2-------------||-4-4-4--0---0-0-0-0--0---0-0-0-0--0---0-0-0-0-------------||-2-2-2----------------------------------------------------|
Fig. 4Gtr. 1+2 w/ dist.Play six times|----------------------------------------------------------||----------------------------------------------------------||----------------------------------------------------------||-6---6-6-6-6--7---7-7-7-7--9---9-9-9-9--9---9-9-9-9-------||-6---6-6-6-6--7---7-7-7-7--9---9-9-9-9--9---9-9-9-9-------||-4---4-4-4-4--5---5-5-5-5--7---7-7-7-7--7---7-7-7-7-------|
Outro-Fig. 5Gtr. 1 w/ dist.|----------------------------------------------------------||-12-----10------9-----5------12-----10------9-----5-------||-14^16--12^14--11^13--7^9----14^16--12^14--11^13--7^9-----||----------------------------------------------------------||----------------------------------------------------------||----------------------------------------------------------|
|----------------------------------------------------------||-14-----12-----10------9-------14-----12-----10------9----||-16^18--14^16--12^14--11^13----16^18--14^16--12^14--11^13-||----------------------------------------------------------||----------------------------------------------------------||----------------------------------------------------------|
|----------------------------------------------------------||-5----7------9-----12-------5----7------9-----12----------||-7^9--9^11--11^13--14^16----7^9--9^11--11^13--14^16-------||----------------------------------------------------------||----------------------------------------------------------||----------------------------------------------------------|
|----------------------------------------------------------||-14-----17-----14-----12-------14-----17-----14-----12----||-16^18--19^21--16^18--14^16----16^18--19^21--16^18--14^16-||----------------------------------------------------------||----------------------------------------------------------||----------------------------------------------------------|
|-16----16--16--16--16--16--16--16--16--16--16--16--16--16-||-19^21(21)(21)(21)(21)(21)(21)(21)(21)(21)(21)(21)(21)(21)||----------------------------------------------------------||----------------------------------------------------------||----------------------------------------------------------||----------------------------------------------------------|
|-16--16--16--16--16--16--16--16--16-----------------------||(21)(21)(21)(21)(21)(21)(21)(21)(21)----------------------||----------------------------------------------------------||----------------------------------------------------------||----------------------------------------------------------||----------------------------------------------------------|
Gtr. 2 w/ dist.|----------------------------------------------------------||-------------------------------------------6---6-6-6-6-6--||-1---1-1-1-1-1--1--1--5---5-5-5-5-5--5--5--6---6-6-6-6-6--||-2---2-2-2-2-2--2--2--6---6-6-6-6-6--6--6--6---6-6-6-6-6--||-2---2-2-2-2-2--2--2--6---6-6-6-6-6--6--6--4---4-4-4-4-4--||-0---0-0-0-0-0--0--0--4---4-4-4-4-4--4--4-----------------|
play four times... then play|--------------------------|-------------------------------||6--6--7---7-7-7-7-7--7--7-|-------------------------------||6--6--7---7-7-7-7-7--7--7-|-1---1-1-1-1-1--1--1--5---5-5-5||6--6--7---7-7-7-7-7--7--7-|-2---2-2-2-2-2--2--2--6---6-6-6||4--4--5---5-5-5-5-5--5--5-|-2---2-2-2-2-2--2--2--6---6-6-6||--------------------------|-0---0-0-0-0-0--0--0--4---4-4-4|
*clean|----------------------------------------------------------||----------------------------------------------------------||-5-5--6--6--6--6--6--6--7---------------------------------||-6-6--6--6--6--6--6--6--7---------------------------------||-6-6--4--4--4--4--4--4--5---------------------------------||-4-4------------------------------------------------------|
Gtr. 3 w/ dist. |----------------------------------------------------------||----------------------------------------------------------||-7^9--7^9--7^9--7^9--7^9--7^9--7^9--7^9--9^11--9^11--9^11-||----------------------------------------------------------||----------------------------------------------------------||----------------------------------------------------------|
|----------------------------------------------------------||----------------------------------------------------------||-9^11--9^11--9^11--9^11--9^11--11^13--11^13--11^13--11^13-||----------------------------------------------------------||----------------------------------------------------------||----------------------------------------------------------|
|----------------------------------------------------------||----------------------------------------------------------||-11^13--11^13--11^13--11^13--14^16--14^16--14^16--14^16---||----------------------------------------------------------||----------------------------------------------------------||----------------------------------------------------------|
|----------------------------------------------------------||----------------------------------------------------------||14^16--14^16--14^16--14^16--------------------------------||----------------------------------------------------------||----------------------------------------------------------||----------------------------------------------------------|
==
Tap to rate this tab
 
# A B C D E F G H I J K L M N O P Q R S T U V W X Y Z