Treble Charger - Stupid Thing To Say tab

Treble Charger-"Stupid Thing to Say"
from the album "Maybe It's Me", 
words and music by Greig Nori, Rosie Martin, Bill Priddle,
		   Mike Levesque
tabbed by: Jd Dude


1st Verse-Fig. 1Gtr. 1 clean|-----0-------0-------0-------0-------3-------3-------2----||---3---3---3---3---3---3---3---3---3---3---3---3---3---3--||-2-------2-------1-------1-------4-------4-------2-------2||----------------------------------------------------------||----------------------------------------------------------||----------------------------------------------------------|
|---2-------0-------0-------0-------0-------3-------3------||-3---3---3---3---3---3---3---3---3---3---3---3---3---3---3||-------2-------2-------1-------1-------4-------4-------2--||----------------------------------------------------------||----------------------------------------------------------||----------------------------------------------------------|
|-2-------2-------0-------0-------0-------0----------------||---3---3---3---3---3---3---3---3---3---3---3--------------||-----2-------2-------2-------2-------2--------------------||----------------------------------------------------------||----------------------------------------------------------||----------------------------------------------------------|
Gtr. 2 clean|-------0-------------0-------------3-------------2--------||---3-----3---3---3-----3---3---3-----3---3---3-----3---3--||-2---2-----2---1---1-----1---4---4-----4---2---2-----2---2||----------------------------------------------------------||----------------------------------------------------------||----------------------------------------------------------|
|-----0-------------0-------------3-------------2----------||-3-----3---3---3-----3---3---3-----3---3---3-----3---3----||---2-----2---1---1-----1---4---4-----4---2---2-----2------||----------------------------------------------------------||----------------------------------------------------------||----------------------------------------------------------|
Bridge-Fig. 2Gtr. 1 clean|-----0-------0--------------------------------------------||---3---3---3---3------------------------------------------||-1-------1------------------------------------------------||----------------------------------------------------------||----------------------------------------------------------||----------------------------------------------------------|
Gtr. 2 w/ o/d|-----0-0--0-0-0-------------------------------------------||-3---3-3--3-3-3-------------------------------------------||-1---1------1-1-------------------------------------------||----------------------------------------------------------||----------------------------------------------------------||----------------------------------------------------------|
Chorus-Fig. 3Gtr. 1 clean|-----0-------0-------5-------5-------5-------5-------3----||---3---3---3---3---5---5---5-------7---7---7---7---3---3--||-0-------0-------6-------6-----6-7-------6-------4-------2||----------------------------------------------------------||----------------------------------------------------------||----------------------------------------------------------|
|---0-------3-------3-------5-------5---5--5-5--5-5-4-4--4-||-3---3---3---3---3---3---5---5---5---5-7--7-7--7-7-6-6--6-||-------4-------4-------6-------6--------------------------||----------------------------------------------------------||----------------------------------------------------------||----------------------------------------------------------|
|-4--4-4-5-5--5-5--5-5-4-4--4-4--4-4-----------------------||-6--6-6-7-7--7-7--7-7-6-6--6-6--6-6-----------------------||----------------------------------------------------------||----------------------------------------------------------||----------------------------------------------------------||----------------------------------------------------------|
Gtr. 2 w/ o/d|-3--3-3--3-3-----------------2--2-2--2-2-2-2--2-2--2-2-2--||-3--3-3--3-3-----------------3--3-3--3-3-3-3--3-3--3-3-3--||-0--0-0--0-0---2--2-2--2-2-2-2--2-2--2-2-2-2--2-2--2-2-2--||-0--0-0--0-0---2--2-2--2-2-2-0--0-0--0-0-0-0--0-0--0-0-0--||-2--2-2--2-2---0--0-0--0-0-0------------------------------||-3--3-3--3-3----------------------------------------------|
|-3--3-3--3-3-3---------------2--2-2--2-2-2-2--2-2--2-2-2--||-3--3-3--3-3-3---------------3--3-3--3-3-3-3--3-3--3-3-3--||-0--0-0--0-0-0-2--2-2--2-2-2-2--2-2--2-2-2-2--2-2--2-2-2--||-0--0-0--0-0-0-2--2-2--2-2-2-0--0-0--0-0-0-0--0-0--0-0-0--||-2--2-2--2-2-2-0--0-0--0-0-0------------------------------||-3--3-3--3-3-3--------------------------------------------|
2nd Verse-same as first but w/ dist.
2nd Chorus-Fig. 4Gtr. 1 w/ dist.|----------------------------------------------------------||------------------------------------10-10----12----10-----||-12--12-12-12p11-11\9-9--6-7-9---11-------11----11----11--||----------------------------------------------------------||----------------------------------------------------------||----------------------------------------------------------|
|----------------------------------------------------------||----------------------------------------------------------||-11-11-11-9-7---12--12-12-12p11-11\9-9--9-9\7-6-7----\----||----------------------------------------------------------||----------------------------------------------------------||----------------------------------------------------------|
Interlude-Fig. 5aGtr. 2 w/ o/d|----------------------------------------------------------||----------------------------------------------------------||-2---2---2-2-2--------------------------------4---4---4-4-||-2---2---2-2-2--5---5---5-5-5--4---4---4-4-4--4---4---4-4-||-0---0---0-0-0--5---5---5-5-5--4---4---4-4-4--2---2---2-2-||----------------3---3---3-3-3--2---2---2-2-2--------------|
|----------------------------------------------------------||-4--------------------------------------------------------||-4--------------------------------------------------------||-2--5---5-5----5---5-5-5-5-5-5----------------------------||----5---5-5----5---5-5-5-5-5-5----------------------------||----3---3-3----3---3-3-3-3-3-3----------------------------|
Fig. 5bGtr. 1 w/ dist.|----------------------------------------------------------||-----------------------------------------------------12---||-2-----------1----1--2--4---2--1-------12---14---12-----12||-------------------------------------0--------------------||----------------------------------------------------------||----------------------------------------------------------|
|----------------------------------------------------------||--------------------12------------------------------------||-12-14-12----14-12-----12-12-14-12----14-12-11------------||----------12-----------------------12---------------------||----------------------------------------------------------||----------------------------------------------------------|
Gtr. 2 w/ dist.|-------0--------------0--------------0--------------0-----||---3------3---3---3------3---3---3------3---3---3------3--||-2---2------2---2---2------2---1---1------1---1---1------1||----------------------------------------------------------||----------------------------------------------------------||----------------------------------------------------------|
|---------3--------------3---------------------------------||-3---3------3---3-5-3-----3-------------------------------||---4---4------4-------4-----4-----------------------------||----------------------------------------------------------||----------------------------------------------------------||----------------------------------------------------------|==
Tap to rate this tab
 
# A B C D E F G H I J K L M N O P Q R S T U V W X Y Z