Treble Charger - Even Garble tab

Treble Charger-"Even Grable"
from the album "Self=Title", 1996. 
words and music by Greig Nori, Rosie Martin, Bill Priddle,
                   Morris Palter
tabbed by: Jd Dude


Intro-Fig. 1Gtr. 1|---------------------------------------------------------------||-12----15----12----10-----8----10-----8----10------------------||-14^16-17^19-14^16-12^14-10^12-12^14-10^12-12^14---------------||---------------------------------------------------------------||---------------------------------------------------------------||---------------------------------------------------------------|
|-12----15----12----10-----8----10-----8----5-------------------||-14^16-17^19-14^16-12^14-10^12-12^14-10^12-7^9-----------------||---------------------------------------------------------------||---------------------------------------------------------------||---------------------------------------------------------------||---------------------------------------------------------------|
|---------------------------------------------------------------||-12----15----12----10-----8----10-----8----10------------------||-14^16-17^19-14^16-12^14-10^12-12^14-10^12-12^14---------------||---------------------------------------------------------------||---------------------------------------------------------------||---------------------------------------------------------------|
*hold note|---------------------------------------------------------------||-12----15----12----10-----8----10-----8----10------------------||-14^16-17^19-14^16-12^14-10^12-12^14-10^12-12^14---------------||---------------------------------------------------------------||---------------------------------------------------------------||---------------------------------------------------------------|
Gtr. 2Play four times|---------------------------------------------------------------||---------------------------------------------------------------||------------------44444---5-5-5--------------------------------||-55555---7-7-7----44444---5-5-5--------------------------------||-55555---7-7-7----22222---3-3-3--------------------------------||-33333---5-5-5-------------------------------------------------|
Fig. 2|---------------------------------------------------------------||--------------7---7-7-7-7---------------5---5-5-5-5------------||-4---4-4-4-4--7---7-7-7-7--2---2-2-2-2--5---5-5-5-5------------||-5---5-5-5-5--7---7-7-7-7--3---3-3-3-3--5---5-5-5-5------------||-5---5-5-5-5--5---5-5-5-5--3---3-3-3-3--3---3-3-3-3------------||-3---3-3-3-3---------------1---1-1-1-1-------------------------|
|---------------------------------------------------------------||--------------7---7-7-7-7---------------1---1-1-1-1------------||-4---4-4-4-4--7---7-7-7-7--2---2-2-2-2--2---2-2-2-2------------||-5---5-5-5-5--7---7-7-7-7--3---3-3-3-3--2---2-2-2-2------------||-5---5-5-5-5--5---5-5-5-5--3---3-3-3-3--0---0-0-0-0------------||-3---3-3-3-3---------------1---1-1-1-1-------------------------|
Chorus-Fig. 3Play four times|-0-0-0---0-0-0---3-3-3---3-3-3---1-1-1---1-1-1-|--1-1-1--------||-1-1-1---1-1-1---0-0-0---0-0-0---1-1-1---1-1-1-|--1-1-1--------||-0-0-0---0-0-0---0-0-0---0-0-0---2-2-2---2-2-2-|--2-2-2--------||-2-2-2---2-2-2---0-0-0---0-0-0---3-3-3---3-3-3-|--3-3-3--------||-3-3-3---3-3-3---2-2-2---2-2-2---3-3-3---3-3-3-|--3-3-3--------||-----------------3-3-3---3-3-3---1-1-1---1-1-1-|--1-1-1--------|
Interlude-Fig. 4 (clean gtr)Gtr. 1|---------------------------------------------------------------||-3-3-3--5-5-5--3-3-3--5-5-5--3-3-3--5-5-5--3-3-3--5-5-5--3-3-3-||-0-0-0--0-0-0--0-0-0--0-0-0--0-0-0--0-0-0--0-0-0--0-0-0--0-0-0-||---------------------------------------------------------------||---------------------------------------------------------------||---------------------------------------------------------------|
|---------------------------------------------------------------||-5-5-5--3-3-3--5-5-5-------------------------------------------||-0-0-0--0-0-0--0-0-0-------------------------------------------||---------------------------------------------------------------||---------------------------------------------------------------||---------------------------------------------------------------|
Gtr. 2|---------------------------------------------------------------||---------------2-2-2--2-2-2--0-0-0--0-0-0--2-2-2--2-2-2--2-2-2-||---------------0-0-0--0-0-0--2-2-2--2-2-2--0-0-0--0-0-0--0-0-0-||---------------------------------------------------------------||---------------------------------------------------------------||---------------------------------------------------------------|
|---------------------------------------------------------------||-2-2-2--0-0-0--0-0-0-------------------------------------------||-0-0-0--2-2-2--2-2-2-------------------------------------------||---------------------------------------------------------------||---------------------------------------------------------------||---------------------------------------------------------------|
Outro-Fig. 5Gtr. 1 ***all bends are full bends******Gtr. 2 plays Fig. 1 times, then what follows below***|---------------------------------------------------------------||-15---15---15---15---17---17-20--17---15---15---12-----12------||-17^--17^--17^--17^--19^--19^-- 19^--17^--17^--14^16--14^16---||---------------------------------------------------------------||---------------------------------------------------------------||---------------------------------------------------------------|
|---------------------------------------------------------------||-10---10----8-------8--10--12--13-----12-----10------8------8--||-12^--12^--10^-----10^-12^-14^-15^----14^----12^----10^----10^-||---------------------------------------------------------------||---------------------------------------------------------------||---------------------------------------------------------------|
|---------------------------------------------------------------||--8--10--12--13-----12-----10------8------8-----8-----8-----8--||-10^-12^-14^-15^----14^----12^----10^----10^---10^---10^---10^-||---------------------------------------------------------------||---------------------------------------------------------------||---------------------------------------------------------------|
|---------------------------------------------------------------||--8-----8-----8--10----10--10----10--10----10--10----10--10----||-10^---10^---10^-12^---12^-12^---12^-12^---12^-12^---12^-12^---||---------------------------------------------------------------||---------------------------------------------------------------||---------------------------------------------------------------|
|---------------------------------------------------------------||-10--10----10--13----13--13--13--13----------------------------||-12^-12^---12^-15^---15^-15^-15^-15^-16^15-15-----\12-12-12-\10||---------------------------------------------------------------||---------------------------------------------------------------||---------------------------------------------------------------|
|---------------------------------------------------------------||------------------------------*at this point i can no longer---||-\7-/12------------------------make out what's being played so-||-------------------------------just adlib some slides without--||------------8\p0-h3---12\5/8---\--/---\---/---\------picking.--||---------------------------------------------------------------|
Gtr. 2|---------------------------------------------------------------||-17---17-20--17-20--17-20--17-20--17-20------------------------||-19^--19^----19^----19^----19^----19^---21^19--19-19--19--19---||---------------------------------------------------------------||---------------------------------------------------------------||---------------------------------------------------------------||---------------------------------------------------------------||-17----17---17-20-17---17--20-17---17-20-17--20--17---17-20-17-||-19-19-19^--19^---19^--19^----19^--19^---19^-----19^--19^---19^||---------------------------------------------------------------||---------------------------------------------------------------||---------------------------------------------------------------||---------------------------------------------------------------||-17-20--17---17-20-17------------------------------------------||-19^----19^--19^---19^--21^19----17---17-17-17-17-17---17-17-17||---------------------------------------------------------------||---------------------------------------------------------------||---------------------------------------------------------------|***after this it sounds like both guitars just do crazy random shit with feedback and distortion.
Tap to rate this tab
 
# A B C D E F G H I J K L M N O P Q R S T U V W X Y Z