Tree 63 - 1 0 1 tab

Song: 1*0*1
Album: Tree63
Artist: Tree63

intro:----------2-4------9-p-7-h--9-p-7-h--9-p-7-h--9----|---2-5---------------------------------------------|---------------------------------------------------|---------------------------------------------------|---------------------------------------------------|---------------------------------------------------|
------2-----------9-p-7-h--9-p-7-h--9-p-7-h--9-----|--2-5----------------------------------------------|--------4------------------------------------------|---------------------------------------------------|---------------------------------------------------|---------------------------------------------------|
----------2-4---------2---------------2-4----------|---2-5-----------2-5-------------2-5---------------|------------------------4--------------------------|---------------------------------------------------|---------------------------------------------------|
------2-------------2-4---------2------------2-4---|--2-5-----------2-5---------2-5----------2-5-------|--------4-------------------------4----------------|---------------------------------------------------|---------------------------------------------------|---------------------------------------------------|
------2---------------2-4-----------2-------|--2-5-------------2-5-----------2-5---------|--------4----------------------------4------|--------------------------------------------|--------------------------------------------|--------------------------------------------|
-------2-4---------2--------------|---2-5---------2-5----------------|---------------------4------------|----------------------------------|----------------------------------|----------------------------------|
verse 1 F#m
verse 2----------2-4---------2---------------2-4----------|---2-5-----------2-5-------------2-5---------------|------------------------4--------------------------|---------------------------------------------------|---------------------------------------------------|---------------------------------------------------|
------2-------------2-4---------2------------2-4---|--2-5-----------2-5---------2-5----------2-5-------|--------4-------------------------4----------------|---------------------------------------------------|---------------------------------------------------|---------------------------------------------------|
------2-4--------2----------2-4--------2----------|-2-5---------2-5-------2-5---------2-5------------|----------------------------4------------4--------|--------------------------------------------------|--------------------------------------------------|--------------------------------------------------|
pre-chorus C#m B F#m C#m B F#m C#m B F#m C#m Em F#m chorus G# C#m G# C#m G# C#m G# C#m
interlude 1----------2-4------9-p-7-h--9-p-7-h--9-p-7-h--9-|---2-5------------------------------------------|------------------------------------------------|------------------------------------------------|------------------------------------------------|------------------------------------------------|
---------2-----------9-p-7-h--9-p-7-h--9-p-7-h--9-|------------2-5-----------------------------------|--------------------------------------------------|--------------------------------------------------|--------------------------------------------------|--------------------------------------------------|
verse 3F#m----------2-4------9-p-7-h--9-p-7-h--9-p-7-h--9-|---2-5------------------------------------------|------------------------------------------------|------------------------------------------------|------------------------------------------------|------------------------------------------------|
---------2-----------9-p-7-h--9-p-7-h--9-p-7-h--9-|------------2-5-----------------------------------|--------------------------------------------------|--------------------------------------------------|--------------------------------------------------|--------------------------------------------------|
---------2-----------9-p-7-h--9-p-7-h--9-p-7-h--9-|------------2-5-----------------------------------|--------------------------------------------------|--------------------------------------------------|--------------------------------------------------|--------------------------------------------------|
---------2-----------9-p-7-h--9-p-7-h--9-p-7-h--9-|------------2-5-----------------------------------|--------------------------------------------------|--------------------------------------------------|--------------------------------------------------|--------------------------------------------------|
pre-chorus 2 C#m B F#m C#m B F#m C#m B F#m C#m Em F#m chorus G# C#m G# C#m G# C#m G# C#m interlude 2
----------4-6----------4------------4-6-|---4-7-----------4-7-----------4-7------|-------------------------6--------------|----------------------------------------|----------------------------------------|----------------------------------------|
-------------4----------------4-6-------|-------4-7------------4-7-----------4-7-|---------------6------------------------|----------------------------------------|----------------------------------------|----------------------------------------|
--4----------------4-6---------4-----------|-----------4-7-----------4-7---------------|---6--------------------------6------------|-------------------------------------------|-------------------------------------------|-------------------------------------------|N.C.
F#m chorus G# C#m G# C#m G# C#m G# C#m
G# C#m G# C#m----------------4-6----------4-----------4-6---|-----------4-7-----------4-7---------4-7-------|-------------------------------6---------------|-----------------------------------------------|-----------------------------------------------|-----------------------------------------------|
G# C#m G# C#m----------------4-6----------4-----------4-6---|-----------4-7-----------4-7---------4-7-------|-------------------------------6---------------|-----------------------------------------------|-----------------------------------------------|-----------------------------------------------|
outro----------2-4---------2---------------2-4----------|---2-5-----------2-5-------------2-5---------------|------------------------4--------------------------|---------------------------------------------------|---------------------------------------------------|
------2-------------2-4---------2------------2-4---|--2-5-----------2-5---------2-5----------2-5-------|--------4-------------------------4----------------|---------------------------------------------------|---------------------------------------------------|---------------------------------------------------|
------2---------------2-4-----------2-------|--2-5-------------2-5-----------2-5---------|--------4----------------------------4------|--------------------------------------------|--------------------------------------------|--------------------------------------------|
-------2-4---------2--------------|---2-5---------2-5----------------|---------------------4------------|----------------------------------|----------------------------------|----------------------------------|
----------14-16----------14------------14-16-|--14-17----------14-17---------14-17---------|----------------------------16---------------|---------------------------------------------|---------------------------------------------|---------------------------------------------|
--------14-------------14-16---------14----|-14-17---------14-17---------14-17---------|-----------16---------------------------16-|-------------------------------------------|-------------------------------------------|-------------------------------------------|
--------14-16---------14-------|-14-17---------14-17-----------|-------------------------16----|-------------------------------|-------------------------------|-------------------------------|
----------14-16----------14------------14-16-|--14-17----------14-17---------14-17---------|----------------------------16---------------|---------------------------------------------|---------------------------------------------|---------------------------------------------|
--------14-------------14-16---------14----|-14-17---------14-17---------14-17---------|-----------16---------------------------16-|-------------------------------------------|-------------------------------------------|-------------------------------------------|
--------14-------------14-16---------------|-14-17---------14-17-----------------------|----------16-------------------------------|-------------------------------------------|-------------------------------------------|-------------------------------------------|
----------14-16----------14-----------------|--14-17----------14-17----------------------|----------------------------16-----11---7---|--------------------------------------------|--------------------------------------------|--------------------------------------------| let ring
END
Tap to rate this tab
 
# A B C D E F G H I J K L M N O P Q R S T U V W X Y Z