Tristan Prettyman - Always Feel This Way tab

3----x----03----x----00----7----70----7----52----x----73----7----x
x----x1----30----0 1x2----43----5x----x
3----x----03----x----00----7----70----7----52----x----73----7----x
x----x1----30----0 1x2----43----5x----x
3----x----03----x----00----7----70----7----52----x----73----7----x
x----x----x----30----0----3----3 1x7----0----0----07----7----4----0x----5----5----27----x----x----3
x----x----x0----0----37----0----07----7----4x----5----57----x----x
3----x----03----x----00----7----70----7----52----x----73----7----x
x----x1----30----0 1x2----43----5x----x
3----x----03----x----00----7----70----7----52----x----73----7----x
this is my first tab so i hope its right, if you think you know it better, tell me. live at lestats version is with capo on the second fret
Tap to rate this tab
 
# A B C D E F G H I J K L M N O P Q R S T U V W X Y Z