Tristan Prettyman - Guest Check tab

Tristan Prettyman
Guest Check (Live) (Acoustic)
Transcribed by Soch Hean

Capo 5th Fret (all relative to capo)

Intro:|----------------------------------------0--3--0--------------||-------0------------------------------3----3--0--------------||-----1----1----2=s4-4-0--------0-----------------------------||-0h2--------2----------------2---2---------------------------||-------------------------0h3-------3-------------------------||-------------------------------------------------------------|
|----------------2------0--------------------------------------||-------0----------0------0----0--------------3-----0-----0----||-----1----1---------------------------0--------0-----0--------||-0h2--------2-------2---------------2---2---------------------||----------------------------0---0h3-------3------3-----0------||--------------------------------------------------------------|
|-------------------------------------------0--3--0----------||-------0---------------------------------3----3--0----------||-----1----1-----4=s2--2-0--------0--------------------------||-0h2--------2------------------2---2------------------------||---------------------------0h3-------3----------------------||------------------------------------------------------------|
|---------------2------2h3-0---------------------------------||-------0---------0------------------------3-----0------0----||-----1----1------------------------0--------0-----0---------||-0h2--------2------2-------------2---2----------------------||-----------------------------0h3-------3------3------0------||------------------------------------------------------------|
|---------x--------x-----------x-----------x---------||-------0-x-0----0-x-0-------0-x-0-------0-x-0-------||-------1-x-1----1-x-0-------0-x-0---------x-1-------||-0h2-2---x---2----x-----------x------2----x---------||---------x--------x----0h2----x----3------x---------||---------x--------x-----------x-----------x---------|
|---------x--------x----------x--------3-0--------||-------0-x-0----0-x-0------0-x-0----3---0--------||-----1---x-1------x-0------0-x-0-----------------||-0h2-----x---2----x----------x-------------------||---------x--------x---0h2----x---3---------------||---------x--------x----------x-------------------|
|---------x------2------0------------x--------------------||-------0-x-0------0------0--------0-x-0----3p0---0-------||-----1---x-1----------------------0-x-0------------0h1---||-0h2-----x---2------2-----------2---x----2-----2---------||---------x------------------0h2-----x--------------------||---------x--------------------------x--------------------|
|---------x-------------------------x-------x----||-------0-x-0-----------------------x-0---3-x-0--||-----1---x-1----4=s2--2p0--------0-x-0---0-x-0--||-0h2-----x---2-----------------2---x-------x----||---------x-----------------0h3-----x---3---x----||---------x-------------------------x-------x----|
Verse: (0:44)|---------x---------x----------x---------x---------||-------0-x-0-----0-x-0------0-x-0-----0-x-0-------||-----1---x-1---1---x-0------0-x-0-----0-x-1-------||-0h2-----x---2-----x------2---x-----2---x---------||---------x---------x---3------x---3-----x---------||---------x---------x----------x---------x---------| (x3)
|---------x---------x---||-------0-x-0-----0-x---||-----1---x-1---1---x---||-0h2-----x---2-----x---||---------x---------x---||---------x---------x---|
|-x-----------x---------x----------x---------x---------||-x---------0-x-0-----0-x-0------0-x-0-----0-x-0-------||-x-------1---x-1---1---x-0------0-x-0-----0-x-1-------||-x-0-0h2-----x---2-----x------2---x-----2---x---------||-x-----------x---------x---3------x---3-----x---------||-x-----------x---------x----------x---------x---------|
|---------x---------x----------x---------x---------||-------0-x-0-----0-x-0------0-x-0-----0-x-0-------||-----1---x-1---1---x-0------0-x-0-----0-x-1-------||-0h2-----x---2-----x------2---x-----2---x---------||---------x---------x---3------x---3-----x---------||---------x---------x----------x---------x---------| (x2)
|---------x---------x----------x---------x---------||-------0-x-0-----0-x-0------0-x-0-----3-x-1-------||-----1---x-1---1---x-0------0-x-0---0---x-2-------||-0h2-----x---2-----x------2---x---------x---------||---------x---------x---3------x---3-----x---------||---------x---------x----------x---------x---------|
Chorus:|--------x----------x----------x----------x------||------1-x-0------3-x-1--------x----------x------||----2---x-0----0---x-0------0-x-1------1-x-2----||-3------x----------x-2----2---x-0------0-x-3----||--------x----------x---3------x---0h2----x------||--------x---3------x----------x----------x------| (x3)
|--------x----------x----------x----------x---------x----||------1-x-0------3-x-1--------x----------x-------0-x----||----2---x-0----0---x-0------0-x-1------1-x-1-----1-x----||-3------x----------x-2----2---x-0------0-x-0-------x----||--------x----------x---3------x---0h2----x---0h2---x----||--------x---3------x----------x----------x---------x----|
|---------0-x-0---3--0------||-0-------0-x-0---3--0------||-1-----1---x---------------||-----------x---------------||---0h2-----x---------------||-----------x---------------|
Break:|---------x--------x----------x----------x--------||-------0-x-0----0-x-0------0-x-0------3-x-0------||-----1---x-1------x-0------0-x-0----0---x-1------||-0h2-----x---2----x----------x----------x--------||---------x--------x---0h2----x---3------x--------||---------x--------x----------x----------x--------|
|---------x--------x----------x----------x-------||-------0-x-0----0-x-0------0-x-0---0--0-x-0-----||-----1---x-1------x-1s2-2--2-x-2s4-4--4-x-1-----||-0h2-----x---2----x----------x----------x-------||---------x--------x----------x----------x-------||---------x--------x----------x----------x-------|
Verse: (2:03)|---------x---------x----------x---------x---------||-------0-x-0-----0-x-0------0-x-0-----0-x-0-------||-----1---x-1---1---x-0------0-x-0-----0-x-1-------||-0h2-----x---2-----x------2---x-----2---x---------||---------x---------x---3------x---3-----x---------||---------x---------x----------x---------x---------| (x3)
|---------x---------x----------x--------x--||-------0-x-0-----0-x-0------0-x--------x--||-----1---x-1---1---x-0------0-x--------x--||-0h2-----x---2-----x------2---x--------x--||---------x---------x---3------x--------x--||---------x---------x----------x--------x--|
Chorus:|--------x----------x----------x----------x------||------1-x-0------3-x-1--------x----------x------||----2---x-0----0---x-0------0-x-1------1-x-2----||-3------x----------x-2----2---x-0------0-x-3----||--------x----------x---3------x---0h2----x------||--------x---3------x----------x----------x------| (x3)
|--------x----------x----------x----------x---------x----||------1-x-0------3-x-1--------x----------x-------0-x----||----2---x-0----0---x-0------0-x-1------1-x-1-----1-x----||-3------x----------x-2----2---x-0------0-x-0-------x----||--------x----------x---3------x---0h2----x---0h2---x----||--------x---3------x----------x----------x---------x----|
|---------0-x-0---3--0------||-0-------0-x-0---3--0------||-1-----1---x---------------||-----------x---------------||---0h2-----x---------------||-----------x---------------|
Break: (2:50)|---------x--------x----------x----------x--------||-------0-x-0----0-x-0------0-x-0------3-x-0------||-----1---x-1------x-0------0-x-0----0---x-1------||-0h2-----x---2----x----------x----------x--------||---------x--------x---0h2----x---3------x--------||---------x--------x----------x----------x--------|
|---------x--------x----------x----------x-------||-------0-x-0----0-x-0------0-x-0---0--0-x-0-----||-----1---x-1------x-1s2-2--2-x-2s4-4--4-x-1-----||-0h2-----x---2----x----------x----------x-------||---------x--------x----------x----------x-------||---------x--------x----------x----------x-------|
|---------x------2------0------------x--------------------||-------0-x-0------0------0--------0-x-0----3p0---0-------||-----1---x-1----------------------0-x-0------------0h1---||-0h2-----x---2------2-----------2---x----2-----2---------||---------x------------------0h2-----x--------------------||---------x--------------------------x--------------------|
|---------x-------------------------x-------3-x-0--||-------0-x-0-----------------------x-0---3---x-0--||-----1---x-1----4=s2--2p0--------0-x-0-------x----||-0h2-----x---2-----------------2---x---------x----||---------x-----------------0h3-----x---3-----x----||---------x-------------------------x---------x----|
Verse 3: (3:10)|---------x----x----------x----x-----||-------0-x----x----------x----x-----||-----1---x----x--------0-x----x-----||-0h2-----x----x------2---x----x-0---||---------x----x-3--3-----x----x-----||---------x----x----------x----x-----| (x3)
|---------x----x----------x---x--x--||-------0-x----x----------x---x--x--||-----1---x----x--------0-x---x--x--||-0h2-----x----x------2---x---x--x--||---------x----x-3--3-----x---x--x--||---------x----x----------x---x--x--|
Chorus:|--------x----------x----------x----------x------||------1-x-0------3-x-1--------x----------x------||----2---x-0----0---x-0------0-x-1------1-x-2----||-3------x----------x-2----2---x-0------0-x-3----||--------x----------x---3------x---0h2----x------||--------x---3------x----------x----------x------| (x7)
Outro:|---------------------------------------||------1p0--0------3----------1---------||----2-----------0----0-------0---------||-3-------------------------------------||-----------------------0-------3-------||--------------3------------------------|
Legend: s - slide h - hammeron p - pulloff The line of X's mean to tap the body of the guitar - (Think of Extreme's "More Than Words")
Tap to rate this tab
 
# A B C D E F G H I J K L M N O P Q R S T U V W X Y Z