Triumph - Fingertalkin tab

-------------------------------------------------------------------------------
			     Fingertalking - Triumph
-------------------------------------------------------------------------------
Tabbed by:	Ashley Dalby
Email:	Luvers666@yahoo.com

Tuning:	EADGBe

| /  slide up
| \  slide down
| h  hammer-on
| p  pull-off
| ~  vibrato
| +  harmonic
| *  artifical harmonic
| x  Mute note
| T  Tempo
===============================================================================

[A]:	Spanish Flamenco:

T: 186

-0-0--0-0--0-0--0-0--|-0-0--0-0--0-0--0-0--|-0-0--0-0--0-0--0-0--|-0-0--0-0--0-0--0-0--|-0-0--0-0--0-0--0-0--|-0-0--0-0--0-0--0-0--|-1-1--1-1--1-1--1-1--|-2-2--2-2--2-2--2-2--|-4-4--4-4--4-4--4-4--|-2-2--2-2--2-2--2-2--|-3-3--3-3--3-3--3-3--|-5-5--5-5--5-5--5-5--|-2-2--2----2----2----|-3-3--3----3----3----|-5-5--5----5----5----|-0-0--0----0----0----|-0-0--0----0----0----|-0-0--0----0----0----|
-0-0--0-0--0-0--0-0--|-0-0--0-0--0-0--0-0--|-0-0--0-0--0-0--0-0--|-0-|-0-0--0-0--0-0--0-0--|-0-0--0-0--0-0--0-0--|-0-0--0-0--0-0--0-0--|-0-|-2-2--2-2--2-2--2-2--|-1-1--1-1--1-1--1-1--|-1-1--1-1--1-1--1-1--|-2-|-3-3--3-3--3-3--3-3--|-2-2--2-2--2-2--2-2--|-2-2--2-2--2-2--2-2--|-3-|-3-3--3----3----3----|-2-2--2----2----2----|-2-2--2----2----2----|-3-|-0-0--0----0----0----|-0-0--0----0----0----|-0-0--0----0----0----|-0-|
T: 160 T:60 T:140 T:194-5--7--8--(10)--10--8--7--5-|-3p1p0---------------------|----------------------------|-------3p1p0---0-3p1p0-----|----------------------------|-------------2---------2p0-|----------------------------|---------------------------|----------------------------|---------------------------|----------------------------|---------------------------|
T:226-------------------------|---------------------------|-------------------------|---------------------------|----------0--------------|---------------------------|-3p2p0h2------3p2p0h2p0--|-----------0---------------|-------------------------|-3p2p0h2-------3p2p0h2p0---|-------------------------|---------------------------|
T:166 T:150--------------------------|---------------------------|--------------------------|---------------------------|--------------------------|---------------------------|--------------------------|---------------------------|-3p2p0h2p0----------------|------------------------2--|------------3--1--0h1p0h1-|-0h1p0h1-0h1p0h1p0---4-----|
T:160----------0--4--7--|--10--8--7---------|-------------------|------------10--9--|----1--4-----------|-------------------|-2-----------------|-------------------|-------------------|-------------------|-------------------|-------------------|
T:300-12--7h10p7--0--|-10--7h10p7--0--|-9--5h9p5--0--|-7--4h7p4--0-|----------------|----------------|--------------|-------------|----------------|----------------|--------------|-------------|----------------|----------------|--------------|-------------|----------------|----------------|--------------|-------------|----------------|----------------|--------------|-------------|
T:210 T:186 T:90 T:70 T:50----------------|-----------------|---------(12)-|---12s-------|-0--------------|-----------------|--------------|-------------|---2--1h2p1---1-|-----------------|--------------|-------------|------------2---|-2p0-----0-----2-|--------------|-------------|----------------|------2----------|--------------|-------------|----------------|------------4----|-0---12-------|-------------|
This the part that begins at 0:28, the main riff in the song. [B]: Bluegrass
T:212----5--------------------|--0------------------------|---------------7---------|---------------------------|-------6-----------6-----|-----2-----4^^(6)--2-------|-------------------------|----------------------4h0--|-0--------------------0--|--0------------------------|-----------0-------------|--------0------------------|
------------------|-----------------------------|---3-----3--3-----|-----------------------------|-----2------------|--1--------2-------3------4--|-0-----4----------|-----0-------0-------0-------|------------------|-----------------------------|---------------0--|--------0-------2-------3s4--|
----5--------------------|--0------------------------|---------------7---------|---------------------------|-------6-----------6-----|-----2-----4^^(6)--2-------|-------------------------|----------------------4h0--|-0--------------------0--|--0------------------------|-----------0-------------|--------0------------------|
------------------|--0--------2--------3-----4--|---3-----3--3-----|-----0-------0--------0------|-----2------------|--------1-------2-------3h4--|-0-----4----------|-----------------------------|------------------|-----------------------------|---------------0--|-----------------------------|
---5----------4------4---|---3----------2------2---|-----5----------5------5-|-----3----------3------3-|--------6----------4-----|--------4---------2------|-7-----(7)--6-----(6)----|-5-----(5)--4----(4)-----|-------------------------|-------------------------|-------------------------|-------------------------|
---1------1------0------0---|---------------------------|-----1------1------1------1-|---3------3-----0------0---|--------2-------------0-----|-----2------2-----1------1-|-3-----(3)------------------|--------0------------0-----|---------------3-----(3)----|-2-----(2)-----------------|----------------------------|--------------0-----(0)----|
---5----------4------4---|---3----------2------2---|-----5----------5------5-|-----3----------3------3-|--------6----------4-----|--------4---------2------|-7-----(7)--6-----(6)----|-5-----(5)--4----(4)-----|-------------------------|-------------------------|-------------------------|-------------------------|
---1------1------0------0---|---------------------------|-----1------1------1------1-|---3------3-----0------0---|--------2-------------0-----|-----2------2-----1------1-|-3-----(3)------------------|--------0------------0-----|---------------3-----(3)----|-2-----(2)-----------------|----------------------------|--------------0-----(0)----|
Let every note within the () marks be a continuational ring of that note played the triplet before [C]: Classical:
T:204---0------0------0------0---|---0------0------0------0---|-----0------0------0------0-|-----0------0------0------0-|--------4-------------4-----|--------3-------------3-----|----------------------------|----------------------------|-4-----(4)-----4-----(4)----|-3-----(3)-----3-----(3)----|----------------------------|----------------------------|
---0------0------0------0---|---0------0------0------0---|-----0------0------0------0-|-----0------0------0------0-|--------1-------------1-----|--------1-------------1-----|----------------------------|----------------------------|-2-----(2)-----2-----(2)----|-1-----(1)-----1-----(1)----|----------------------------|----------------------------|
T:200---0------0------0------0---|---0------0------0------0---|-----0------0------0------0-|-----0------0------0------0-|--------9-------------9-----|--------9-------------9-----|----------------------------|----------------------------|----------------------------|----------------------------|-9-----(9)-----9-----(9)----|-8-----(8)-----8-----(8)----|
T:196---0------0------0------0---|---5------5------5------5---|-----5------5------5------5-|-----5------5------5------5-|--------7-------------7-----|---------------7------------|----------------------------|----------------------------|----------------------------|--------7-------------7-----|-7-----(7)-----7-----(7)----|-0-----(0)----(0)----(0)----|
---9------9------9------9---|-----9------9------9------9-|---------------7------------|----------------------------|--------7-------------7-----|-0-----(0)----(0)----(0)----|
T:130 T:90 T:90 T:50 T:40 T:20----------------------------|-14p12----12----12--12s3----|---------9------------------|-12----13----12-------------|------7-----7---------------|-13----13----11-------------|----------------------------|--x----12----12-------------|---7------------------------|--x----------11-------------|0----------(0)--------------|--0-------------------------|
T:212----5--------------------|--0------------------------|---------------7---------|---------------------------|-------6-----------6-----|-----2-----4^^(6)--2-------|-------------------------|----------------------4h0--|-0--------------------0--|--0------------------------|-----------0-------------|--------0------------------|
------------------|-----------------------------|---3-----3--3-----|-----------------------------|-----2------------|--1--------2-------3------4--|-0-----4----------|-----0-------0-------0-------|------------------|-----------------------------|---------------0--|--------0-------2-------3s4--|
----5--------------------|--0------------------------|---------------7---------|---------------------------|-------6-----------6-----|-----2-----4^^(6)--2-------|-------------------------|----------------------4h0--|-0--------------------0--|--0------------------------|-----------0-------------|--------0------------------|
------------------|--0--------2--------3-----4--|---3-----3--3-----|-----0-------0--------0------|-----2------------|--------1-------2-------3h4--|-0-----4----------|-----------------------------|------------------|-----------------------------|---------------0--|-----------------------------|
---5----------4------4---|---3----------2------2---|-----5----------5------5-|-----3----------3------3-|--------6----------4-----|--------4---------2------|-7-----(7)--6-----(6)----|-5-----(5)--4----(4)-----|-------------------------|-------------------------|-------------------------|-------------------------|
---1------1------0------0---|---------------------------|-----1------1------1------1-|---3------3-----0------0---|--------2-------------0-----|-----2------2-----1------1-|-3-----(3)------------------|--------0------------0-----|---------------3-----(3)----|-2-----(2)-----------------|----------------------------|--------------0-----(0)----|
---5----------4------4---|---3----------2------2---|-----5----------5------5-|-----3----------3------3-|--------6----------4-----|--------4---------2------|-7-----(7)--6-----(6)----|-5-----(5)--4----(4)-----|-------------------------|-------------------------|-------------------------|-------------------------|
---1------1------0------0---|---------------------------|-----1------1------1------1-|---3------3-----0------0---|--------2-------------0-----|-----2------2-----1------1-|-3-----(3)------------------|--------0------------0-----|---------------3-----(3)----|-2-----(2)-----------------|----------------------------|--------------0-----(0)----|
T:204---0------0------0------0---|---0------0------0------0---|-----0------0------0------0-|-----0------0------0------0-|--------4-------------4-----|--------3-------------3-----|----------------------------|----------------------------|-4-----(4)-----4-----(4)----|-3-----(3)-----3-----(3)----|----------------------------|----------------------------|
---0------0------0------0---|---0------0------0------0---|-----0------0------0------0-|-----0------0------0------0-|--------1-------------1-----|--------1-------------1-----|----------------------------|----------------------------|-2-----(2)-----2-----(2)----|-1-----(1)-----1-----(1)----|----------------------------|----------------------------|
T:200---0------0------0------0---|---0------0------0------0---|-----0------0------0------0-|-----0------0------0------0-|--------9-------------9-----|--------9-------------9-----|----------------------------|----------------------------|----------------------------|----------------------------|-9-----(9)-----9-----(9)----|-8-----(8)-----8-----(8)----|
T:196---0------0------0------0---|---5------5------5------5---|-----5------5------5------5-|-----5------5------5------5-|--------7-------------7-----|---------------7------------|----------------------------|----------------------------|----------------------------|--------7-------------7-----|-7-----(7)-----7-----(7)----|-0-----(0)----(0)----(0)----|
---9------9------9------9---|-----9------9------9------9-|---------------7------------|----------------------------|--------7-------------7-----|-0-----(0)----(0)----(0)----|
T:130 T:90 T:70 T:60 T:50----------------------------|-14p12--9p7----------------|---------9------------------|-12-----7----8p7---5~~~----|------7-----7---------------|-13-----7----7-----5~~~----|----------------------------|--x-----7----8-----6~~~----|---7------------------------|--x-----7----7-----7~~~----|0----------(0)--------------|--0------------------------| T:40 T:74[D]: Soul:
------4h5p4h5p4h5p4h5p4s//5-|-5~~5-5---5~~5-5------|----------------------------|-3--------3-----------|----------------------------|-3--------3-----------|----------------------------|-x--------x-----------|----------------------------|-x--------3-----------|-0~~~-----------------------|-3--------x-----------|
T:70-5~~6--5---5-------------|-5~~5-5---5~~5-5s-----|-5---------6~~8--6-------|-3--------7-----------|-5---------7-------------|-2--------7-----------|-3---------8-------------|-x--------x-----------|-------------------------|-x--------x-----------|-------------------------|-2--------0-----------|
T:160 T:144-9------------------------------|-------------------------|---10-10-8----------------------|-------------------------|-----------9-7-(7)---7-5s6------|-------------------------|-------------------7---7----7-5-|-------------------------|--------------------------------|-7-5-3---5-3s4-----------|--------------------------------|-------5---5---5-3-5-(5)-|
-11----14-------------14*-|-11----14p14------14*-----|-11----14-----14----------|-10-----------------------|-11p0---------------------|--------------------------|
Tap to rate this tab
 
# A B C D E F G H I J K L M N O P Q R S T U V W X Y Z