City tab with lyrics by Triumph - Easy chords and tabs for guitar

Triumph – City tab

Band:  Triumph
Title: The City
Album: Rock And Roll Machine
Year:  1977

(0:00		-	2:22)

Fade In
Drums Enter At 0:18
Guitar Begins At 0:35

----------------------------------------------------[---------------------]-----------------------------------------------------[---------------------]-----------------------------------------10--9~~~~~--[---------------------]-------------------------------10--9~~~--------------[-5--5-5-5-5--5-5-5-5-]--------9--8~~~-------10--9~~~-----------------------[-5--5-5-5-5--5-5-5-5-]--10~~~----------8~~~--------------------------------[-3--3-3-3-3--3-3-3-3-]- [--------PM--------]
--------------------------------------------------------------------------------------------------------------------------------------------------------------------------------------------------------10--9~~-10--10-10-10-10--10--10-10s12---------------------------------10--9~~~-------------------------------------------------9--8~~~-------10--9~~~----------------------------------------------------10~~~----------8~~~------------------------------------------------------------
Beginning At: (1:15)---------------------------------------------------|---------------------------------------------------|-12-12-12-12---12-12-12-12---12-12-12-15-14-15-12--|---------------------------------------------------|---------------------------------------------------|---------------------------------------------------|
---------------------------------------------------|---------------------------------------------------|-12-12-12-12---12-12-12-12---12-12-12-15-14-15-12--|---------------------------------------------------|---------------------------------------------------|---------------------------------------------------|
---------------------------------------------------|---------------------------------------------------|-12-12-12-12---12-12-12-12---12-12-12-15-14-15-12--|---------------------------------------------------|---------------------------------------------------|---------------------------------------------------|
-----------------------------------------------------|-----------------------------------------------------|-12-12-12-12---12-12-12-12---12-12-12-14-15-14-12h15-|-----------------------------------------------------|-----------------------------------------------------|-----------------------------------------------------|
(1:27)
---------------------------------------------------|---------------------------------------------------|-15-15-15-15---15-15-15-15---15-15-15-17-19-17-15--|---------------------------------------------------|---------------------------------------------------|---------------------------------------------------|
---------------------------------------------------|---------------------------------------------------|-15-15-15-15---15-15-15-15---15-15-15-17-19-17-15--|---------------------------------------------------|---------------------------------------------------|---------------------------------------------------|
---------------------------------------------------|---------------------------------------------------|-15-15-15-15---15-15-15-15---15-15-15-17-19-17-15--|---------------------------------------------------|---------------------------------------------------|---------------------------------------------------|
-----------------------------------------------------|-------------------------------------------------p14-|-15-15-15-15---15-15-15-15---15-15-15-17-19-17-15----|-----------------------------------------------------|-----------------------------------------------------|-----------------------------------------------------|
(1:39)-----------------------------------------------------|-14-14-14-14---14-14-14-15---15-15-15---17--15--14---|-----------------------------------------------------|-----------------------------------------------------|-----------------------------------------------------|-----------------------------------------------------|
-----------------------------------------------------|-14-14-14-14---14-14-14-15---15-15-15---17--15--14---|-----------------------------------------------------|-----------------------------------------------------|-----------------------------------------------------|-----------------------------------------------------|
-----------------------------------------------------|-14-14-14-14---14-14-14-15---15-15-15---17--15--14---|-----------------------------------------------------|-----------------------------------------------------|-----------------------------------------------------|-----------------------------------------------------|
(1:50)-----------------------------------------------------|-16-16-16-16---16-16-16-17---17-17-17---19--17--16---|-----------------------------------------------------|-----------------------------------------------------|-----------------------------------------------------|-----------------------------------------------------|
-----------------------------------------------------|-16-16-16-16---16-16-16-17---17-17-17---19--17--16---|-----------------------------------------------------|-----------------------------------------------------|-----------------------------------------------------|-----------------------------------------------------|
-----------------------------------------------------|-16-16-16-16---16-16-16-17---17-17-17---19--17--16---|-----------------------------------------------------|-----------------------------------------------------|-----------------------------------------------------|-----------------------------------------------------|
-----------------------------------------------------|-16-16-16-16---16-16-16-17---17-17-17---19--17--16---|-----------------------------------------------------|-----------------------------------------------------|-----------------------------------------------------|-----------------------------------------------------|
(2:02 - 2:22)-----------------------------------|-17-s-14-s-17-s-14-s-19-19-19--17--|-----------------------------------| Repeat Four Times-----------------------------------| Repeat Four Times-----------------------------------|-----------------------------------|
Please rate this tab:
x1.0