Triumph - Blinding Light Show tab

[A]	Intro:	(0:00 - 0:48)

|-----------|--------------|----------------------||-----------|--------------|----------------------||-----------|--------------|------------10-10-10--||-----5-6---|-6h8p6h8p6----|-----5----5-10-10-10--||-8-8-----8-|-----------8--|--5h6--5h6---8--8--8--||-----------|--------------|----------------------|
|-----------|--------------|----------------------||-----------|--------------|----------------------||-----------|--------------|------------10-10-10--||-----5-6---|-6h8p6h8p6----|-----5----5-10-10-10--||-8-8-----8-|-----------8--|--5h6--5h6---8--8--8--||-----------|--------------|----------------------|
|-----------|--------------|----------------------||-----------|--------------|----------------------||-----------|--------------|------------10-10-10--||-----5-6---|-6h8p6h8p6----|-----5----5-10-10-10--||-8-8-----8-|-----------8--|--5h6--5h6---8--8--8--||-----------|--------------|----------------------|
|-----------|--------------|----------------------||-----------|--------------|----------------------||-----------|--------------|------------10-10-10--||-----5-6---|-6h8p6h8p6----|-----5----5-10-10-10--||-8-8-----8-|-----------8--|--5h6--5h6---8--8--8--||-----------|--------------|----------------------|
|-----------|--------------|----------------------||-----------|--------------|----------------------||-----4-5---|-5h7p5h7p5----|------------10-10-10--||-7-7-----7-|-6h8p6h8p6----|-----5----5-10-10-10--||-----------|-----------8--|--5h6--5h6---8--8--8--||-----------|--------------|----------------------|
|-----------|--------------|----------------------||-----------|--------------|----------------------||-----4-5---|-5h7p5h7p5----|-----4----4--9--9--9--||-7-7-----7-|-----------7--|--4h5--4h5---9--9--9--||-----------|--------------|-------------7--7--7--||-----------|--------------|----------------------|
|-----------|--------------|----------------------||-----------|--------------|----------------------||-----4-5---|-5h7p5h7p5----|------------10-10-10--||-7-7-----7-|-6h8p6h8p6----|-----5----5-10-10-10--||-----------|-----------8--|--5h6--5h6---8--8--8--||-----------|--------------|----------------------|
|-----------|--------------|----------------------||-----------|--------------|----------------------||-----4-5---|-5h7p5h7p5----|-----4----4--9--9--9--||-7-7-----7-|-----------7--|--4h5--4h5---9--9--9--||-----------|--------------|-------------7--7--7--||-----------|--------------|----------------------|
"fill" play fast|---7---5----|------------------||---8---6----|------------------||-9-9-7-7-5--|------------------||-9---7---5--|-----7h9p7s12-----||-7---5---3--|--10----------12--||------------|------------------|
fill|---5---7----|-------------------||---6---8----|--11--8p6-8--------||-7-7-9-9-12-|--15--------15-17--||-7---9---12-|-------------------||-5---7---10-|-------------------||------------|-------------------|
|---------------------------|-------------------||---------------------------|-------------------||---------------------------|-------------15----||-12s14--14--14s16--16--17--|-19-17p15-17-------||---------------------------|-------------------||---------------------------|-------------------|
|-----------------------||-7s9~-10-11s13-13--15~-||-----------------------||-----------------------||-----------------------||-----------------------|
[B] Verse 1: (0:49 - 1:28)
|-----------------|-----------------||-------0h5-------|-------0h5-------||-----6-----6-----|-----6-----6-----||---7---------7---|---7---------7---||-0-------------0-|-0-------------0-||-----------------|-----------------|
|--------0--------0-------0-------0-||------0---0------------0---0-------||----9-------9--------9-------9-----||-10-----------10---8-----------8---||-----------------------------------||-----------------------------------|
|--------0-------0-------0-------0--||------0---0-----------0---0--------||----8-------8-------7-------7------||--9-----------9---8-----------8----||-----------------------------------||-----------------------------------|
And from where I stand. I reach my hand|----------0--------3----------0--------2--||-------6----6------3--------3---3------0--||----7---------7-----------2-------2----0--||-0--------------0--2----0-----------0--3--||------------------------------------------||------------------------------------------|
To catch a love glow...|------------------------6----------------||--10-----8-----5------8---8--------------||---9-----7-----3----7-------7------------||---7-----5-----2--0-----------0----------||-0-----0-----0------0-------0------------||-----------------------------------------|
But the selfish stare. Through electric air|----------0--------3----------0--------2--||-------6----6------3--------3---3------0--||----7---------7-----------2-------2----0--||-0--------------0--2----0-----------0--3--||------------------------------------------||------------------------------------------|
Is a blinding light show...|-------------------------6----------------||---8-----5-----3-------8---8--------------||---7-----3-----2-----7-------7------------||---5-----2-----0---0-----------0----------||-0-----0-----0-----0-----------0----------||------------------------------------------|
I see the face that has no place|----------0--------3----------0--------2--||-------6----6------3--------3---3------0--||----7---------7-----------2-------2----0--||-0--------------0--2----0-----------0--3--||------------------------------------------||------------------------------------------|
But somehow knows...|------------------------6-----------------||--10-----8-----5------8---8---------------||---9-----7-----3----7-------7-------------||---7-----5-----2--0-----------0-----------||-0-----0-----0-----0-----------0----------||------------------------------------------|
The truth is clear, but hiding here in the|----------0--------3----------0--------2--||-------6----6------3--------3---3------0--||----7---------7-----------2-------2----0--||-0--------------0--2----0-----------0--3--||------------------------------------------||------------------------------------------|
Blinding Light Show... The Blinding Light Show...|------------------------6------------|-----------||--------------------||---8-----5-----3------8---8----------|-----------||--------------------||---7-----3-----2----7-------7--------|-----------||-9--------7-----9---||---5-----2-----0--0-----------0------|-Drum Fill-||-9--------7-----9---||-0-----0-----0----0-----------0------|-----------||-7--------5-----7---||-------------------------------------|-----------||--------------------|
[C] Verse 1: (1:35 - 2:12)
The place is strange The Colors Change|---0-----------1p0---------------||---0-----------5p0-----------0-----||-----3-------3-----3-------------||-----6-------6-----6-------6-------||-------2---2---------2-----------||-------7---7---------7---7---------||-0-------0-------------0---------||-0-------0-------------0-----------||---------------------------------||-----------------------0-----------||---------------------------------||-----------------------------------|
The Dancer Slows|-------------------------6----------------||---10-----8-----5------8---8--------------||----9-----7-----3----7-------7------------||----7-----5-----2--0-----------0----------||-0-----0-----0-----0-----------0----------||------------------------------------------|
And Shifts His Pace And Lifts His Face Into The|---0-----------1p0---------------||---0-----------5p0-----------0-----||-----3-------3-----3-------------||-----6-------6-----6-------6-------||-------2---2---------2-----------||-------7---7---------7---7---------||-0-------0-------------0---------||-0-------0-------------0-----------||---------------------------------||-----------------------0-----------||---------------------------------||-----------------------------------|
Blinding Light Show|-------------------------0----------------||---10-----8-----5------6---6--------------||----9-----7-----3----7-------7------------||----7-----5-----2--0-----------0----------||-0-----0-----0-----0-----------0----------||------------------------------------------|
A naked heart is Quickly torn apart, and...|---0-----------1p0---------------||---0-----------5p0-----------0-----||-----3-------3-----3-------------||-----6-------6-----6-------6-------||-------2---2---------2-----------||-------7---7---------7---7---------||-0-------0-------------0---------||-0-------0-------------0-----------||---------------------------------||-----------------------0-----------||---------------------------------||-----------------------------------|
...The burning glows|-------------------------6----------------||---10-----8-----5------8---8--------------||----9-----7-----3----7-------7------------||----7-----5-----2--0-----------0----------||-0-----0-----0-----0-----------0----------||------------------------------------------|
When you try to think It only makes you sink, into the...|---0-----------1p0---------------||---0-----------5p0-----------0-----||-----3-------3-----3-------------||-----6-------6-----6-------6-------||-------2---2---------2-----------||-------7---7---------7---7---------||-0-------0-------------0---------||-0-------0-------------0-----------||---------------------------------||-----------------------0-----------||---------------------------------||-----------------------------------|
...Blinding Light Show|-------------------------0----------------||---10-----8-----5------6---6--------------||----9-----7-----3----7-------7------------||----7-----5-----2--0-----------0----------||-0-----0-----0-----0-----------0----------||------------------------------------------|
The Blinding Light Show|-----7-----5-----|--------------||-----8-----6-----|--------------||--9--9--7--7-(5)-|--------------||--9-----7----(5)-|--4h5p4s7-----||--7-----5----(3)-|-5-------7----||-----------------|--------------|
The Blinding Light Show|-----7-----5-----|--------------||-----8-----6-----|--------------||--9--9--7--7-(5)-|15-12p109-----||--9-----7----(5)-|---------10-12||--7-----5----(3)-|----------7--9||-----------------|--------------|
[D] Bass Guitar & Keyboard Section: (2:13 - 2:41)
|-----------------------------------|---------||--------------------9--7-----------|-----2---||-7~~~--9--10--9--7--------10--9--7-|---2---2-||-----------------------------------|-0-------|
|-----------------------------------|------------||--------------------9--7-----------|------------||-7~~~--9--10--9--7--------10--9--7-|-0h3-5-3-5--||-----------------------------------|-0----------|
|-----------------------------------|---------||--------------------9--7-----------|-----4---||-7~~~--9--10--9--7--------10--9--7-|---4---4-||-----------------------------------|-2-------|
|--------------------|||--------------------|||-7~~~--9--10--9--7--||Guitar Enters|--------------------||
|------------|---------------|||------------|---------------|||------------|---------------|||------------|--7---5--3--2--|||------------|--7---5--3--2--|||--10--9--7--|--5---3--1--0--||
[E] Verse 3: (2:42 - 3:20)
And While The Crowd Keeps Calling Out Hoorah!|-----------------||-------------------||-----------------||-------0-------||----------6------||------------6------||----------10~~~--||-----6---6-----||------------7----||----------7---7----||--------9--------||---7-------7---||---7----7-----7--||---7----7-------7--||-----7-----------||-0-----------0-||-5----5----------||-5----5------------||--0--------------||-0-----------0-||-----------------||-------------------||-----------------||---------------|
They're Greedy Hands Keep Clutching Out Hoorah! Hoorah! Hoorah!|-----------------||-------------------||-----------------------||-------0-------||----------6------||------------6------||----10------8-------6--||-----8---8-----||------------7----||----------7---7----||-----9------7-------5--||---7-------7---||---7----7-----7--||---7----7-------7--||-----7------5-------3--||-0-----------0-||-5----5----------||-5----5------------||--0------0-------0-----||-0-----------0-||-----------------||-------------------||-----------------------||---------------|
The Aimless Mob Is Calling Out Hoorah!|-----------------||-------------------||-----------------||-------0-------||----------6------||------------6------||----------10~~~--||-----6---6-----||------------7----||----------7---7----||--------9--------||---7-------7---||---7----7-----7--||---7----7-------7--||-----7-----------||-0-----------0-||-5----5----------||-5----5------------||--0--------------||-0-----------0-||-----------------||-------------------||-----------------||---------------|
(An) Unseen Candles Burning Out Hoorah! Hoorah! Hoorah! X2|-----------------||-------------------||-----------------------||-------8-------|||----------6------||------------6------||----10------8-------6--||-----6---6-----|||------------7----||----------7---7----||-----9------7-------5--||---7-------7---|||---7----7-----7--||---7----7-------7--||-----7------5-------3--||-0-----------0-|||-5----5----------||-5----5------------||--0------0-------0-----||-0-----------0-|||-----------------||-------------------||-----------------------||---------------||
The Blinding Light Show|-------------------------0----------------||---10-----8-----5------6---7--------------||----9-----7-----3----7-------7------------||----7-----5-----2--0-----------0----------||-0-----0-----0-----0-----------0----------||------------------------------------------|
The Blinding Light Show|-------------------------0----------------||---10-----8----10------6---6--------------||----9-----7-----9----7-------7------------||----7-----5-----7--0-----------0~~~~~-----||-0-----0-----0-----0----------------------||------------------------------------------|
[F] Classical Guitar Solo: (3:21 - 5:43)
|-7---7-10---10-7---7-7p0---0-7---7-10--8-7-7---7-7p0---0-||--0-0-0--0-0--0-0-0-0---0-0---0-0-0--0----0-0-0-0---0-0--||---0------0------5-------5-----0------0------5-------5---||---------------------------------------------------------||---------------0-----0---------------------0-----0-------||-0-----0---------------------0-----0---------------------|
|--2---2-2---3p2-2---2-0----0----2------------0--0-||---3-3---4-4-----3-3-3-0----5----2-4---5--------0-||----2--4--2-------0-----0-0--2-2----2-2-2---2-2-0-||-0----------------------2----4------4-----2-----2-||--------2-------3-----3-----2------2------2-----2-||-----------------------------------------0------0-|
|-7---7-12-------------7---7h8-7-5-8-5h8p5----||--0-0-0---8-12-8h12p8--0-0---------------5---||---0-----9-----------9--5-----------------5--||-------------------------------------------7-||----------------------0----------------------||-0-----0-------------------------------------|
|--5-3-2----------------/---2--0----0-||-4-----5-3-------------/--0-0--0-----||--5-4-2---5-4-2--------/-----2--0-0--||-4-----5-4-----5-4-2-1-/-1----2--2---||----------6-6-3--------/-------------||---------------7-5-3-2-/-------------|
|---2--2-0----0-2---(7)-2---(7)-0----0-----(12)-||--0-0----0------3-3-(7)-3-3-(7)-0------1-(12)--||-----2----0-0----0-------0-------0-0----(12)---||-1------2--2---2-------2----------2---2--------||-------------------------------3-----3---------||-----------------------------------------------|
|-2---2-------------(7)-------(12)-(7)-(5)-||--3-3------(7)----(7)(7)-----(12)-(7)-(5)-||---2--4--(7)-(7)-(7)--(7)-12-(12)-(7)-(5)-||-0-----0--------9-------------------------||--------9---------------------------------||------------------------0-----------------|
|-0-------------------------------------------------||--0------------------------------------------------||---0-----------------------------------------------||----4---4-5-4-4-5--4-5-4-4-5--4-5-4-4-5--4-5-4-4-5-||-----7-2-----2----3-----3----4-----4----3-----3----||------7----------0----------0----------0-----------|
|--0--0--0--0--0--0--0--0--0--0--0--0--0--0--0--0--||---0--0--0--0--0--0--0--0--0--0--0--0--0--0--0--0-||--------------------------------------------------||-------4--5--4-----4--5--------4--5--4-----4--5---||----2-----------2-----------3-----------3---------||-0-----------------------0------------------------|
|--0--0--0--0--0--0--0--0--0--0--0--0--0--0--0--0--||---0--0--0--0--0--0--0--0--0--0--0--0--0--0--0--0-||--------------------------------------------------||-------4--5--4-----4--5--------4--5--4-----4--5---||----4-----------4-----------3-----------3---------||-0-----------------------0------------------------|
|--0--0--0--0--0--0--0--0--0--0--0--0--0--0--0--0--||---0--0--0--0--0--0--0--0--0--0--0--0--0--0--0--0-||--------------------------------------------------||-------4--5--4-----4--5--------4--5--4-----4--5---||----2-----------2-----------3-----------3---------||-0-----------------------0------------------------|
|--0--0--0--0--0--0--0--0--0--0--0--0--0--0--0--0--||---0--0--0--0--0--0--0--0--0--0--0--0--0--0--0--0-||--------------------------------------------------||-------4--5--4-----4--5--------5-----------6------||----4-----------4-----------5-----5-----7-----7---||-0-----------------------0-----------0------------|
|--0--0--0--0--0--0--0--0--0--0--0--0--0--0--0--0--0--0--0--0--0--0--0--||---0--0--0--0--0--0--0--0--0--0--0--0--0--0--0--0--0--0--0--0--0--0--0-||----0--5--4--5--0--4--5--------5--4--7--5--4--2--0--2--0---------------||-------------------------0--4-----------------------------4--2--0------||-0-----------------------------------------------------------------2---||-----------------------------------------------------------------------|
|--0--0--0--0--0--0--0--0--0--0--0--0--0--0--0--0--0--0--0--0--0--0--0---||---0--0--0--0--0--0--0--0--0--0--0--0--0--0--0--0--0--0--0--0--0--0--0--||-------0--------0--------------5--4--5--0--4--5--------5--4--7--5--4--2-||----2-----2-----------------2--------------------0--4-------------------||-3-----------3-----3--2--0----------------------------------------------||------------------------------------------------------------------------|
|----2--2--2--2--2--2--2--0--0--0--0--0--0--0--||--0--3--3--3--2--2--2--2--1--1--1--1--0--0--0-||------0--------0------------------------------||---------2--------4-----0--3-----3-----3--2---||---2--------0--------0--------0---------------||-0----------------------------------3---------|
|--0--------------------------------0---------------||---0-3--3--3--3--3--3--3--3--0--0-0---0--0--0--0---||------3--3--3--3--2--2--2--2--2--2--2--2--2--2--2--||-------1-----1-----1--0--------2-----2-----2--1----||----3-----------------------------------2--------2-||-3---------3-----1-------1--2----------------------|
|-3-3-2--0---0-2-3-3-2--0--------3-3-2--0---0--||--0---3--1---0---0---3--1-3-5-7--0---3--1---0-||-------2--0-----------2----0-0-0------2--0----||-2---0-----2--0-2---0-----4-5-7-2---0-----2---||--------3--------------3---------------3------||----------------------------------------------|
[G] Shredding Guitar Solo: (5:44 - 6:27)
|--------------||-----------------------------------|||--------------||-----------------------------------|||----------1/--||-9--------9--------------12--10--9-|||--5---4---2/--||-9--------9--------------12--10--9-|||--5---4---2/--||-7--x--x--7--x--x--x--x--10---8--7-|||--3---2---0---||-----------------------------------||
|-----------------------------------||----------------------||-----------------------------------||----------------------||-9--------9--------------12--10--9-||-5-s-7-s-9---5--s--7--||-9--------9--------------12--10--9-||-5-s-7-s-9---5--s--7--||-7--x--x--7--x--x--x--x--10---8--7-||-3-s-5-s-7---3--s--5--||-----------------------------------||----------------------|
[H] Bridge W/ Bass Guitar: (6:28 - 6:56)
|--------------------------------||-------------------------------------||--------------------------------||-------------------------------------||---7--9--10--9--7---------------||----9--11--13--11--9-----------------||-9----------------10--9--7--9---||-11------------------12--11--9--11---||--------------------------------||-------------------------------------||--------------------------------||-------------------------------------|
|--------------------------------||-------------------------------------||--------------------------------||-------------------------------------||---7--9--10--9--7---------------||----9--11--13--11--9-----------------||-9----------------10--9--7--9---||-11------------------12--11--9--11^^-||--------------------------------||-------------------------------------||--------------------------------||-------------------------------------|
[I] Verse 4: (6:57 - 7:27)
And the sounds of truth ring hollow In this pretense world of show|---0-----------1p0---------------||---0-----------5p0-----------0------|||-----3-------3-----3---------10--||-----6-------6-----6-------6-----8--|||-------2---2---------2--------9--||-------7---7---------7---7-------7--|||-0-------0-------------0------7--||-0-------0-------------0---------5--|||------------------------------0--||-----------------------0---------0--|||---------------------------------||------------------------------------||
And the footlights burn their pathways Profits Come And Go|---0-----------1p0------------------||--------------------------6----------------||-----3-------3-----3---------10-----||----10-----8-----5------8---8--------------||-------2---2---------2--------9-----||-----9-----7-----3----7-------7------------||-0-------0-------------0------7-----||-----7-----5-----2--0-----------0----------||------------------------------0-----||-----0-----0-----0--0-----------0----------||------------------------------------||-------------------------------------------|
And the seeming some-day singer Lives the carney barker's dream|---0-----------1p0---------------||---0-----------5p0-----------0------|||-----3-------3-----3---------10--||-----6-------6-----6-------6-----8--|||-------2---2---------2--------9--||-------7---7---------7---7-------7--|||-0-------0-------------0------7--||-0-------0-------------0---------5--|||------------------------------0--||-----------------------0---------0--|||---------------------------------||------------------------------------||
Selling all by saying nothing in the Language of a scream|---0-----------1p0------------------||--------------------------6----------------||-----3-------3-----3---------10-----||----10-----8-----5------8---8--------------||-------2---2---------2--------9-----||-----9-----7-----3----7-------7------------||-0-------0-------------0------7-----||-----7-----5-----2--0-----------0----------||------------------------------0-----||-----0-----0-----0--0-----------0----------||------------------------------------||-------------------------------------------|
The language of a scream|-------------------------6----------------||---10-----8-----5------8---8--------------||----9-----7-----3----7-------7------------||----7-----5-----2--0-----------0----------||-0-----0-----0-----0-----------0----------||------------------------------------------|
A naked heart is Quickly torn apart, and...|---0-----------1p0---------------||---0-----------5p0-----------0-----||-----3-------3-----3-------------||-----6-------6-----6-------6-------||-------2---2---------2-----------||-------7---7---------7---7---------||-0-------0-------------0---------||-0-------0-------------0-----------||---------------------------------||-----------------------0-----------||---------------------------------||-----------------------------------|
...The burning glows|-------------------------0----------------||---10-----8-----5------6---6--------------||----9-----7-----3----7-------7------------||----7-----5-----2--0-----------0----------||-0-----0-----0-----0-----------0----------||------------------------------------------|
When you try to think It only makes you sink, into the...|---0-----------1p0---------------||---0-----------5p0-----------0-----||-----3-------3-----3-------------||-----6-------6-----6-------6-------||-------2---2---------2-----------||-------7---7---------7---7---------||-0-------0-------------0---------||-0-------0-------------0-----------||---------------------------------||-----------------------0-----------||---------------------------------||-----------------------------------|
...Blinding Light Show|-------------------------6----------------||---10-----8-----5------8---8--------------||----9-----7-----3----7-------7------------||----7-----5-----2--0-----------0----------||-0-----0-----0-----0-----------0----------||------------------------------------------|
The Blinding Light Show|-----7-----5-----|--------------||-----8-----6-----|--------------||--9--9--7--7-(5)-|--------------||--9-----7----(5)-|--4h5p4s7-----||--7-----5----(3)-|-5-------7----||-----------------|--------------|
The Blinding Light Show|-----7-----5-----|--------------||-----8-----6-----|--------------||--9--9--7--7-(5)-|15-12p109-----||--9-----7----(5)-|---------10-12||--7-----5----(3)-|----------7--9||-----------------|--------------|
[J] Verse 5: (7:27 - 7:47)
And the blind shall lead the sighted|----------0--------3----------0--------2--||-------6----6------3--------3---3------0--||----7---------7-----------2-------2----0--||-0--------------0--2----0-----------0--3--||------------------------------------------||------------------------------------------|
As we lose the candle glow|------------------------0----------------||--10-----8-----5------6---6--------------||---9-----7-----3----7-------7------------||---7-----5-----2--0-----------0----------||-0-----0-----0------0-------0------------||-----------------------------------------|
No one knows tomorrow|----------0--------3----------0--------2--||-------6----6------3--------3---3------0--||----7---------7-----------2-------2----0--||-0--------------0--2----0-----------0--3--||------------------------------------------||------------------------------------------|
In the blinding light show|------------------------6----------------||---8-----5-----3------8---8--------------||---7-----3-----2----7-------7------------||---5-----2-----0--0-----------0----------||-0----0-----0-----0-----------0----------||-----------------------------------------|
The blinding light show|------------------------6----------------||---8-----5-----3------8---8--------------||---7-----3-----2----7-------7------------||---5-----2-----0--0-----------0----------||-0----0-----0-----0-----------0----------||-----------------------------------------|
|------------------------6----------------||--10-----8----10------8---8--------------||---9-----7-----9----7-------7------------||---7-----5-----7--0-----------0----------||-0----0-----0-----0-----------0----------||-----------------------------------------|
[K] Outro: (7:48 - 8:44)
|-----------------------------------|--------------------||-----------------------------------|--------------------||-----------------------------------|--------------------||--------------9-----10--9--7--9----|--------------------||-7--7--9--10-----7--------------7--|-------7----7--9--7-||-----------------------------------|-8--10---10---------|
|-----------------------------------|-------------------------||--(5)--|||-----------------------------------|-------------------------||--(5)--|||-----------------7---9--7--5--7----|-------------------------||--(5)--|||-5--5--7---9--5--9--10--9--7--9-9--|-------5-----5--7--5-----||--(5)--|||-7--7--9--10--7-----------------7--|-7--9--7--9--7--9--7-----||-------|||-----------------------------------|-8--10---10------------0-||-------||
Tap to rate this tab
 
# A B C D E F G H I J K L M N O P Q R S T U V W X Y Z