Trivium - Washing Me Away In The Tides tab



Yer this alex z havnt tabbed in a while i must say but i got a sweet version of this, it kills.


i couldnt be bothered doing the harmony so im just gonna do matts half but ill do corey 
aswell.(and matts)

wat u need: pitcher shifter(for solo), distortion. to play guitar good.


intro------------------------------------------------------------|------------------------------------------------------------|------------------------------------------------------------|-10----------------------10--------------10-10-10--8--------|--7-----------------------7---------------7-/8\-7--8--------|--0-0-0-0-0-0-0-0-0-0-0-0-0-0-0-0-0-0-0-0----------8--------|
------------------------------------------------------------|------------------------------------------------------------|------------------------------------------------------------|---------------10-------12-10-8-----------------------------|---8---7---8-8----8-------------12-10-8---------------------|-8---8---8--------------------------------------------------|
do this again but the end is different this time------------------------------------------------------------|------------------------------------------------------------|------------------------------------------------------------|-10----------------------10--------------10-10-10--8--------|--7-----------------------7---------------7-/8\-7--8--------|--0-0-0-0-0-0-0-0-0-0-0-0-0-0-0-0-0-0-0-0----------8--------|
------------------------------------------------------------|------------------------------------------------------------|----------------------5---5--5------------------------------|----------------------x---x--x------------------------------|---8---7---5---5------3---3--3------------------------------|-8---8---8-------8------------------------------------------|
repeat all wat has been done through the intro
now for pre chorus------------------------------------------------------------|------------------------------------------------------------|------------------------------------14----------------------|--12---------10---------12-------12-------------------------|-----8-8-8-8----8-8-8-8----8--10-------12-10-12-------------|------------------------------------------------------------|
--------------------------------------------------------------|--------------------------------------------------------------|--------------------------------------------------------------|--15-------------14-------------15----------14----------14-15-|-----12-12-12-12----12-12-12-12----12-12-12----12-12-12-------|--------------------------------------------------------------|thats the prechorus that is 100% im sure of it
chorus just the melody (solo in background) slow not fast------------------------------------------------------------|------------------------------------------------------------|------17--17\-------------14--------------------------------|--15------------15-----17----17---------------15--14--------|-------------------15-----------15--15----17---------15-----|---------------------------------------17-------------------|
------------------------------------------------------------|----------------17------------------------------------------|---15-14-15--------17--14-----------------------------------|------------------------------------------------------------|------------------------------------------------------------|------------------------------------------------------------|x2
o ill give u the cords( figure out the pattern)
------------------------------------------------------------|------------------------------------------------------------|------------------------------------------------------------|-0---3---5---5---7------------------------------------------|-0---3---5---5---7------------------------------------------|-0---1---3---5---7------------------------------------------|x2
verse.
------------------------------------------------------------|------------------------------------------------------------|------------------------------------------------------------|-10----------------------10--------------10-10-10--8--------|--7-----------------------7---------------7-/8\-7--8--------|--0-0-0-0-0-0-0-0-0-0-0-0-0-0-0-0-0-0-0-0----------8--------|
------------------------------------------------------------|------------------------------------------------------------|------------------------------------------------------------|---------------10-------12-10-8-----------------------------|---8---7---8-8----8-------------12-10-8---------------------|-8---8---8--------------------------------------------------|
------------------------------------------------------------|------------------------------------------------------------|------------------------------------------------------------|-10----------------------10--------------10-10-10--8--------|--7-----------------------7---------------7-/8\-7--8--------|--0-0-0-0-0-0-0-0-0-0-0-0-0-0-0-0-0-0-0-0----------8--------|
------------------------------------------------------------|------------------------------------------------------------|----------------------5---5--5------------------------------|----------------------x---x--x------------------------------|---8---7---5---5------3---3--3------------------------------|-8---8---8-------8------------------------------------------|
pre chorus again
------------------------------------------------------------|------------------------------------------------------------|------------------------------------14----------------------|--12---------10---------12-------12-------------------------|-----8-8-8-8----8-8-8-8----8--10-------12-10-12-------------|------------------------------------------------------------|
--------------------------------------------------------------|--------------------------------------------------------------|--------------------------------------------------------------|--15-------------14-------------15----------14----------14-15-|-----12-12-12-12----12-12-12-12----12-12-12----12-12-12-------|--------------------------------------------------------------|
chorus again
------------------------------------------------------------|------------------------------------------------------------|------17--17\-------------14--------------------------------|--15------------15-----17----17---------------15--14--------|-------------------15-----------15--15----17---------15-----|---------------------------------------17-------------------|
------------------------------------------------------------|----------------17------------------------------------------|---15-14-15--------17--14-----------------------------------|------------------------------------------------------------|------------------------------------------------------------|------------------------------------------------------------|x2
------------------------------------------------------------|------------------------------------------------------------|------------------------------------------------------------|-0---3---5---5---7------------------------------------------|-0---3---5---5---7------------------------------------------|-0---1---3---5---7------------------------------------------|x2
Bridge (this sounds so kool)
--------------------------------------------------------------|--------------------------------------------------------------|--------------------------------------------------------------|--------------------------------------------------------------|-------3------5--------3------7--------3------8---------------|-0-0h3---5--3----0-0h3---5--3----0-0h3---5--3-----------------|
--------------------------------------------------------------|--------------------------------------------------------------|--------------------------------------------------------------|--------------5--3--2--3--------------------------------------|-------3------------------------------------------------------|-0-0h3---5----0--0--0--0--------------------------------------|
coreys solo woooooooo(kind of fast)--------------------------------------------------------------|--13b---------------------------------------------------------|--12b---10-----------12--10-----------------------------------|-----------12------12--12--12-12-10--10-----------------------|-----------------------------------12--12-10-12-10-8----------|--------------------------------------------------------------|
hard out shred
----------------------------------------------------------13-10-|----------------------------10----10-13-10----10-12-13-12-------|----------------------12-10----12----------12-------------------|-------------10-12-10-------------------------------------------|-12-10-12-10----------------------------------------------------|----------------------------------------------------------------|
----10-13-10-15-10-13-10--------------------------------------|-13----------------------13-10-13-10--------------------------|-------------------------------------12-10-12-12b-12-10-12br--|--------------------------------------------------------------|--------------------------------------------------------------|--------------------------------------------------------------|
pitcher shifter used here (octave pedal) for sweeps
-------------------------17----------------------17-20-17-----------------|----------------------20----20----------------20----------20-17-----------|-------------------22----------22-------------------------------19-17-----|----------------19----------------21-19-17-19-------------------------17--|----------20-22-----------------------------------------------------------|-15-17-19-----------------------------------------------------------------|
slow down here-15brb--15-13-------------------------------------------------|--------------15-13-15------------------------10----10----10--|----------------------------12--10------------10----10----10--|-----------------------------------12--12--12----12----12-----|--------------------------------------------------------------|--------------------------------------------------------------|
--------------------------------------------------------------|----10--/10---------------------------------------------------|----10------10------------------------------------------------|-12-----------------------------------------------------------|--------------------------------------------------------------|--------------------------------------------------------------|
Matts solo(slow here)
--------------------------------------------------------------|--13b--13b-------------10-----------------10-10---------------|--12b--12b--10---------10-----12-10-------10-10---------------|-----------------12-12-----12-------12-12---------------------|--------------------------------------------------------------|--------------------------------------------------------------|
Matts shred (Go hard out)
--------------------------------------------------------------|--------------------------------------------------------------|----------------------------------------------10-------10-10--|----------10----------------10-12-12-10-12-12----12-10--------|-10-12-12----12-10-10-12-12-----------------------------------|--------------------------------------------------------------|
slow here---------------------------------------------------------------|----------------------------------------------12-----18-----22-|-12-12-13-13-10-12-13-13-12-10-10-12-13-13-14------------------|---------------------------------------------------------------|---------------------------------------------------------------|---------------------------------------------------------------|
back to intro
------------------------------------------------------------|------------------------------------------------------------|------------------------------------------------------------|-10----------------------10--------------10-10-10--8--------|--7-----------------------7---------------7-/8\-7--8--------|--0-0-0-0-0-0-0-0-0-0-0-0-0-0-0-0-0-0-0-0----------8--------|
------------------------------------------------------------|------------------------------------------------------------|------------------------------------------------------------|---------------10-------12-10-8-----------------------------|---8---7---8-8----8-------------12-10-8---------------------|-8---8---8--------------------------------------------------|
------------------------------------------------------------|------------------------------------------------------------|------------------------------------------------------------|-10----------------------10--------------10-10-10--8--------|--7-----------------------7---------------7-/8\-7--8--------|--0-0-0-0-0-0-0-0-0-0-0-0-0-0-0-0-0-0-0-0----------8--------|
------------------------------------------------------------|------------------------------------------------------------|----------------------5---5--5------------------------------|----------------------x---x--x------------------------------|---8---7---5---5------3---3--3------------------------------|-8---8---8-------8------------------------------------------|
pre chorus
------------------------------------------------------------|------------------------------------------------------------|------------------------------------14----------------------|--12---------10---------12-------12-------------------------|-----8-8-8-8----8-8-8-8----8--10-------12-10-12-------------|------------------------------------------------------------|
--------------------------------------------------------------|--------------------------------------------------------------|--------------------------------------------------------------|--15-------------14-------------15----------14----------14-15-|-----12-12-12-12----12-12-12-12----12-12-12----12-12-12-------|--------------------------------------------------------------|
chorus
------------------------------------------------------------|------------------------------------------------------------|------17--17\-------------14--------------------------------|--15------------15-----17----17---------------15--14--------|-------------------15-----------15--15----17---------15-----|---------------------------------------17-------------------|
------------------------------------------------------------|----------------17------------------------------------------|---15-14-15--------17--14-----------------------------------|------------------------------------------------------------|------------------------------------------------------------|------------------------------------------------------------|x2
------------------------------------------------------------|------------------------------------------------------------|------------------------------------------------------------|-0---3---5---5---7------------------------------------------|-0---3---5---5---7------------------------------------------|-0---1---3---5---7------------------------------------------|x2
this is the riff in the background of the chorus after u do it twicecorey plays this riff its quiet hard so try ur best.(not very fast average)------------------------------------------------------------|------------------------------------------------------------|------------------------------------------------------------|-12-15-14-15-12-15-14-15-12-15-14-15-12-15-14---------------|------------------------------------------------------------|------------------------------------------------------------|
------------------------------------------------------------|------------------------------------------------------------|------------------------------------------------------------|-8-12-10-12-8-12-10-12-8-12-10-12-8-12-10-12----------------|------------------------------------------------------------|------------------------------------------------------------|
------------------------------------------------------------|------------------------------------------------------------|------------------------------------------------------------|-10-14-12-14-10-14-12-14-10-14-12-14-10-14-12-14------------|------------------------------------------------------------|------------------------------------------------------------|
------------------------12-10----------------------------------|---------------------11-------11-10----------------------------|---------10-12-12-14----------------12-10----------------------|-8-12-14----------------------------------14-12--(15)last-note-|---------------------------------------------------------------|---------------------------------------------------------------|repeat this until end and last time u play it through finish on the 15
chords are stil the same and melody is u cant play this is still the same thats it for this song have a good day and cant wait for the new trivium album shogun woooooooo
Tap to rate this tab
 
# A B C D E F G H I J K L M N O P Q R S T U V W X Y Z