Rising tab with lyrics by Trivium - Easy chords and tabs for guitar

Trivium – Rising tab

Full version with soloIntro|-------------------------------------------||-------------------------------------------||-7--5-----5--------------------------------||-------7-----7--5-----5--7--5-----5--------||-------------------8-----------8-----8-----||-------------------------------------------|
| |
|-------------------------------------------||-------------------------------------------||-------------------------------------------||-------------------------------------------||-5--3--0--3--0-----------0-----------------||----------------3--1--3-----3--1--3--1-----|
|----------------------------|----------------------------||----------------------------|----------------------------||-7--7-7-----5-7-----------7-|----7-7-----5-7-----------7-||-7--7-7-----5-7-----------7-|----7-7-----5-7-----------7-||-5--5-5-5-5-3-5-5-5-5-5-5-5-|----5-5-5-5-3-5-5-5-5-5-5-5-||----------------------------|----------------------------|
| |
|----------------------------|----------------------------||------6-------6---------5---|----------------------------||------7-------7---------5---|--------------10-----12-----||-0----------0---------0-----|-0---0--0--/10---/10--------||----------------------------|----------------------------||----------------------------|----------------------------|
Intro Solo |-15(17)--15(17)---15(17)r--13/15\13---15-13-----13-15(17)r--||-----------------------------------13------13-15------------||------------------------------------------------------------||------------------------------------------------------------||------------------------------------------------------------||------------------------------------------------------------|
|-------------------------------------||-------------------------------------||-------10-12-12(14)-12-10------------||-10-12-------------------12-10-12\\--||-------------------------------------||-------------------------------------|
Verse ..Bass for first two bars
verse riff is same as the top intro riff and one guitarholds the d chord over the top. but here are the fills at the tail of the riff|---------------| |-------------------------------||---------------| |-------------------------------||-7-5-----------| |-7-5---5-----------------------||-----7-5-------|and|-----7---7-5---5-7-5---5-------||---------8-5-3-| |-------------8-------8---8~~~--||---------------| |-------------------------------|
Chorus i couldn't be bothered tabbing the rythm for them bothtogether so i'll just give you the two riffs that are playedover each other|-----------------------------------------------------||-----------------------------------------------------||-7--7--7--7-7--7--7--7------------------7--7--7-7----||-8--5--7--5-8--5--7--7-10--10-10-10-10--7--7--7-7-10-||-5--5--5--5-5--5--5--5-10--10-10-10-10--5--5--5-5-10-||-----------------------8---8--8--8--8-------------8--|
|--------------------------------------------------------------------||--------------------------------------------------------------------||-7-7-7-7-7-7-7-7-7-7-7-7-12-12-1010-5-5-5-5-5-5-5-5-7-7-7-7-7-7-7-5-||--------------------------------------------------------------------||-5-5-5-5-5-5-5-5-5-5-5-5-10-10-8-8--3-3-3-3-3-3-3-3-5-5-5-5-5-5-5-3-||--------------------------------------------------------------------|
Second solo|----------------------------|--------------13-15(17)15-||-------13(15)~~~~~--12--10--|-------13(15)-------------||-10-12--------------12--10--|-10-12--------------------||----------------------------|--------------------------||----------------------------|--------------------------||----------------------------|--------------------------|
|-13--12h13p12--12-13-15-17-18-20-22-20-22(24)--||-------------15--------------------------------||-----------------------------------------------||-----------------------------------------------||-----------------------------------------------||-----------------------------------------------|
Verse, ChorusBreakdown|---------------------------------||--------------5---6--------------||-7-7------7-----------7----------||-7-7-----------------------------||-5-5-5-5----5---5---5---5-5-5-5--||---------------------------------|
Solo
|-15b--------17~~~~~---||----------------------||----------------------||----------------------||----------------------||----------------------|
|------------------------------------------||-18-20-18--18-20-18--17-18-17--17-18-17---||---------19--------19--------17--------17-||------------------------------------------||------------------------------------------||------------------------------------------|
|------------------------------------------||-15-17-15--15-17-15--14-15-14--14-15-14---||---------17--------17--------15--------15-||------------------------------------------||------------------------------------------||------------------------------------------|
|----------------------------||-6--6--x-6-x-6--6--x-6-5-6--||-5--5--5-5-5-5--5--5-5-5-5--||----------------------------||----------------------------||----------------------------|
|----------------------------------------||----------------------------------------||----------------------------------------||-15--14--12-----12----------------------||---17--15--15-13--15-13-12-13--13-15-17-||-----------------------------15---------|
|---------------------------------------||---------------------------------------||---------------------------------------||-----------------------------17-19~~~--||------------------19-20-19-21----------||-15-17-18-20-22-24---------------------|
|------------------------------|-10--13-10--13-10--13-10-||-10--8-10-8----10--8-10-8-----|-------------------------||------------10------------10--|-------------------------||------------------------------|-------------------------||------------------------------|-------------------------||------------------------------|-------------------------|
|-10-12-13-10-12-13-10-12-13-10-12-13-10-12-13-10-12-13-||-------------------------------------------------------||-------------------------------------------------------||-------------------------------------------------------||-------------------------------------------------------||-------------------------------------------------------|
|-10-17-15-13----------------------------8-10-||------------17-15-13---------------10-11-----||--------------------15-14-----10-12----------||-------------------------12-14---------------||---------------------------------------------||---------------------------------------------|
|-13-13---15-15---17-17---20-20--22-20--22--||-15-15---17-17---18-18---22-22-------------||-------------------------------------------||-------------------------------------------||-------------------------------------------||-------------------------------------------|
Backing is breakdown riff except for last bar|----------------------------------------||----------------------------------------||----------------------------------------||----------------------------------------||-0--0-----3--3-----5--5-----5--5--3--5--||----------------------------------------|
Chorus again
Please rate this tab:
x1.0