Trivium - In Waves tab version 1

Band: Trivium
Song: In Waves


This is Trivium’s first preview single from the fifth studio album. I think
this is Matt Heafy’s tribute to the
Disaster that happened in Japan early 2011… Not 100% sure on that though

!!!READ!!!
You could count this as the bass tab as well because the bass is basically
the same as the Rhythm all the way though except for the outro, which I have
added at the bottom as it’s slightly different.

Tuning: Drop C# (C#, G#, C#, F#, A#, D#)
(Tune all strings down ˝ a step and then drop tune)

Hammer on:  h
Pull off:   p
Slide up:   /
Slide down: \
Vibrato:    ~~~
Palm mute:  PM
Bend up:    BU(?)

Intro/Verse “In waves!” PM-----------------------------------------|||--|------------------------|-----------------------------|||--|------------------------|-----------------------------|||--|------------------------|-----------------------------|||--|------------------------|-----------------------------|||--|------------------------|-----------------------------|||--|--15p0---0---0-0-0----0-|---0-0---0----0-0---0-0---0--|
PM-----------------------||------------------------|-----------------------------||------------------------|-----------------------------||------------------------|-----------------------------||------------------------|-----------------------------||------------------------|-------------3-3-3-3-3-3-3-3-||--15p0---0---0-0-0----0-|---0-0---0-------------------|
PM-----------------------------------------||------------------------|-----------------------------||------------------------|-----------------------------||------------------------|-----------------------------||------------------------|-----------------------------||------------------------|-----------------------------||--15p0---0---0-0-0----0-|---0-0---0----0-0---0-0---0--|
PM-----------------------||------------------------|---------------------------||------------------------|---------------------------||------------------------|---------------------------||------------------------|---------------------------||------------------------|---------------3-3-3-3-3-3-||--15p0---0---0-0-0----0-|---0-0---0-----------------|
PM-----------------------------------------||------------------------|-----------------------------||------------------------|-----------------------------||------------------------|-----------------------------||------------------------|-----------------------------||------------------------|-----------------------------||--15p0---0---0-0-0----0-|---0-0---0----0-0---0-0---0--|
PM-----------------------||------------------------|-----------------------------||------------------------|-----------------------------||------------------------|-----------------------------||------------------------|-----------------------------||------------------------|-------------3-3-3-3-3-3-3-3-||--15p0---0---0-0-0----0-|---0-0---0-------------------|
PM-----------------------------------------||------------------------|-----------------------------||------------------------|-----------------------------||------------------------|-----------------------------||------------------------|-----------------------------||------------------------|-----------------------------||--15p0---0---0-0-0----0-|---0-0---0----0-0---0-0---0--|
PM-------| |-Drum fill-----||------------------------|-----------------------------||------------------------|-----------------------------||------------------------|-----------------------------||------------------------|-----------------------------||------------------------|-------------3-3-3-3-3-3-3-3-||--15p0---0---0-0-0------|-----------------------------|
Chorus
Matt (Rhythm)|---------------------------------|---------------------------------||---------------------------------|---------------------------------||---------------------------------|---------------------------------||---------------------------------|---------------------------------||-0-0-0-0-0-0-0-0-0-0-0-0-0-0-0-0-|-3-3-3-3-3-3-3-3-3-3-3-3-3-3-3-3-||-0-0-0-0-0-0-0-0-0-0-0-0-0-0-0-0-|-3-3-3-3-3-3-3-3-3-3-3-3-3-3-3-3-|
|---------------------------------|---------------------------------||---------------------------------|---------------------------------||---------------------------------|---------------------------------||---------------------------------|---------------------------------||-8-8-8-8-8-8-8-8-8-8-8-8-8-8-8-8-|-7-7-7-7-7-7-7-7-7-7-7-7-7-7-7-7-||-8-8-8-8-8-8-8-8-8-8-8-8-8-8-8-8-|-7-7-7-7-7-7-7-7-7-7-7-7-7-7-7-7-|
Corey (Lead)
|------------------------|------------------------||------------------13----|------------------------||-14-10----9-10-------10-|----9-10----14-10----9--||-------12------12-------|-12------12-------12----||------------------------|------------------------||------------------------|------------------------|
|------------------------|------------------------||------------------13----|------------------------||-14-10----9-10-------10-|----9-10----14-10----9--||-------10------10-------|-10------10-------10----||------------------------|------------------------||------------------------|------------------------|
|------------------------|-----------------------||-----------------13-----|-----------------------||-15-10----9-10------10--|----9-10----15-10----9-||-------12------12-------|-12------12-------12---||------------------------|-----------------------||------------------------|-----------------------|
|-------------------------|-------------------------||-------------------------|-------------------------||-14-10----14-10----14-10-|-14-10----14-10----14-10-||-------12-------12-------|-------12-------12-------||-------------------------|-------------------------||-------------------------|-------------------------|
Interlude(Quite riff after first Chorus)|------------------------|-----------------------||------------------13----|-----------------------||-14-10----9-10-------10-|----9-10----14-10----9-||-------12------12-------|-12------12-------12---||------------------------|-----------------------||------------------------|-----------------------|
Repeat Intro/Verse Repeat Chorus x2 Pre-solo Verse
Matt PM--------|||-------------------------------------|||-------------------------------------|||-------------------------------------|||-------------------------------------|||-------------0-0-0-0-0-0-0-0-0-0-0-0-|||-0-0-0---0-0-0-0-0-0-0-0-0-0-0-0-0-0-|
|---------------------------------||---------------------------------||---------------------------------||---------------------------------||-8-8-8-8-8-8-8-8-5-5-5-5-5-5-5-5-||-8-8-8-8-8-8-8-8-5-5-5-5-5-5-5-5-|
|---------------------------------||---------------------------------||---------------------------------||---------------------------------||-0-0-0-0-0-0-0-0-0-0-0-0-0-0-0-0-||-0-0-0-0-0-0-0-0-0-0-0-0-0-0-0-0-|
|----------------------------------|||---------------------------------o|||----------------------------------|||----------------------------------|||-8-8-8-8-8-8-8-8-5-5-5-5-5-5-5-5-o|||-8-8-8-8-8-8-8-8-5-5-5-5-5-5-5-5--||
Corey PM--------|||--------------------------------------------------|||--------------------------------------------------|||--------------11-11-11-11-11-11-11-11-12-12-11-11-|||--------------------------------------------------|||---------------9--9--9--9--9--9--9--9-10-10--9--9-|||-0-0-0---0-0--------------------------------------|
|---------------------------------------------||---------------------------------------------||-14-14-14-14-12-12-12-12-10-10-10-10-9-9-9-9-||---------------------------------------------||-12-12-12-12-10-10-10-10--8--8--8--8-7-7-7-7-||---------------------------------------------|
|-------------------------------------------------||-------------------------------------------------||-12-12-12-12-11-11-11-11-11-11-11-11-12-12-11-11-||-------------------------------------------------||-10-10-10-10--9--9--9--9--9--9--9--9-10-10--9--9-||-------------------------------------------------|
|----------------------------------------------|||---------------------------------------------o|||-14-14-14-14-12-12-12-12-10-10-10-10-9-9-9-9--|||----------------------------------------------|||-12-12-12-12-10-10-10-10--8--8--8--8-7-7-7-7-o|||----------------------------------------------||
(Solo on separate tab) Repeat Intro/Verse Repeat only Chorus Rhythm x2 Interlude Repeat Chorus with Lead Outro
Lead||---------|---------|---------|----------||||---------|---------|---------|---------o||||----10-9-|----10-9-|----10-9-|----10-9--||||-12------|-10------|-12------|-12-------||||---------|---------|---------|---------o||||---------|---------|---------|----------||
Rhythm (Top)Bass (Bottom) PM-------------------------------------|||-----------------------|-----------------------------|||-----------------------|-----------------------------|||--2--2--2--------------|-----------------------------|||--0--0--0--------------|-----------------------------|||--0--0--0--------------|-----------------------------|||--0--0--0---0-0-0----0-|---0-0---0----0-0---0-0---0--|
||
||-----------------------|-----------------------------|||-----------------------|-----------------------------|||-----------------------|-----------------------------|||--0--0--0---0-0-0----0-|---0-0---0----0-0---0-0---0--|
PM-------------------------------------|||-----------------------|-----------------------------|||-----------------------|-----------------------------|||--5--5--5--------------|-----------------------------|||--3--3--3--------------|-----------------------------|||--3--3--3--------------|-----------------------------|||--3--3--3---3-3-3----3-|---3-3---3----3-3---3-3---3--|
||
||-----------------------|-----------------------------|||-----------------------|-----------------------------|||-----------------------|-----------------------------|||--3--3--3---3-3-3----3-|---3-3---3----3-3---3-3---3--|
PM-------------------------------------|||-----------------------|-----------------------------|||-----------------------|-----------------------------|||-10-10-10--------------|-----------------------------|||--8--8--8--------------|-----------------------------|||--8--8--8--------------|-----------------------------|||--8--8--8---8-8-8----8-|---8-8---8----8-8---8-8---8--|
||
||-----------------------|-----------------------------|||-----------------------|-----------------------------|||-----------------------|-----------------------------|||--8--8--8---8-8-8----8-|---8-8---8----8-8---8-8---8--|
PM--------------------------------------|||-----------------------|------------------------------||||-----------------------|-----------------------------o||||--9--9--9--------------|------------------------------||||--7--7--7--------------|------------------------------||||--7--7--7--------------|-----------------------------o||||--7--7--7---7-7-7----7-|---7-7---7----7-7---7-7---7---||
||
||------------------------|-------------------||||-------7-----------7----|------------------o||||----7-----7-----7-----7-|------------------o||||-7-----------7----------|-3--------2--------||
Both guitars PM--------||-----------------------||-----------------------||-----------------------||-------------0~~~~~~~~-||-------------0~~~~~~~~-||-0-0-0---0-0-0~~~~~~~~-|
Song in Order: Intro/Verse Chorus Interlude Intro/Verse Chorus x2 Pre-solo Verse Solo 1 Pre-solo Verse Solo 2 Chorus Build up (Rhythm guitar only) x2 Interlude Chorus x2 Outro
Tap to rate this tab
 
# A B C D E F G H I J K L M N O P Q R S T U V W X Y Z