Tronic – Malos Amigos tab

Malos amigos (bad friends)

Artist: Tronic
Album: Ke patine la risa


\ Slide
() harmonic


--------------------------------------------------------------|--------------------------------------------------------------|--777-------------7--(7)----777-------------7--(7)(7)(7)(7)---|--777-7-777-\-555-7---(7)---777-7-777-\-555-7-----------------|--555-7-777-\-555-5----(7)--555-7-777-\-555-5-----------------|--555-5-555-\-333-------(7)-555-5-555-\-333-------------------|
First part of the verse is only bass then enters the guitar in some part of the verse play this riff
---------------|---------------|777------------|777-7----------|555-7----------|555-5----------|
pre-chorus 1
-----------------------|-----------------------|777--------------------|777-7-777-\-444-555----|555-7-777-\-444-555----|555-5-555-\-222-333----|
pre-chorus 2 just next to the pre-chorus 1
----------------------------------------|----------------------------------------|77777777--------------------------------|77777777-77777777-44444444-55555555-----|55555555-77777777-44444444-55555555-----|55555555-55555555-22222222-33333333-----|
chorus
------------------------------------------------|------------------------------------------------|7-777777----------------------------------------|7-777777--7-777777--4-444444-5-555555-----------|5-555555--7-777777--4-444444-5-555555-----------|5-555555--5-555555--2-222222-3-333333-----------|X2
repeat intro verse 2 is the same, just play the little riff again in the same part pre-chorus 1
-----------------------|-----------------------|777--------------------|777-7-777-\-444-555----|555-7-777-\-444-555----|555-5-555-\-222-333----|
pre-chorus 2 just next to the pre-chorus 1
----------------------------------------|----------------------------------------|77777777--------------------------------|77777777-77777777-44444444-55555555-----|55555555-77777777-44444444-55555555-----|55555555-55555555-22222222-33333333-----|
chorus
------------------------------------------------|------------------------------------------------|7-777777----------------------------------------|7-777777--7-777777--4-444444-5-555555-----------|5-555555--7-777777--4-444444-5-555555-----------|5-555555--5-555555--2-222222-3-333333-----------|X2
and play the shorus once more right after it bridge
-----------------------------------------------------------------|-----------------------------------------------------------------|777-12-11-9-7-777-12-11-9-7-777-12-11-9-7-9-7-999-7-6-7----------|777-12-11-9-7-777-12-11-9-7-777-12-11-9-7-9-7-999-7-6-7----------|555-10-9--7-5-555-10-9--7-5-555-10-9--7-5-7-7-777-5-4-5----------|-----------------------------------------------------------------|
there is a part with no guiatr played, after that once again there is a chorus chorus
------------------------------------------------|------------------------------------------------|7-777777----------------------------------------|7-777777--7-777777--4-444444-5-555555-----------|5-555555--7-777777--4-444444-5-555555-----------|5-555555--5-555555--2-222222-3-333333-----------|X3
an play intro once thats it
Please rate this tab:
x1.0