Trustcompany – Take It All tab

Band- Trust Company
Song- Take It All

This song is in drop C# tuning:

1 D#
2 A#
3 F#
4 C#
5 G#
6 C#

nh - natural harmonics
pm - palm muted
h - hammer on
* - let ring
~ - you get the picture

3x =======================

|------------------------------||------------------------------||------------------------------||-22---------------------------||-22---------------------------||-22----0-2-0-2-2-0-2-3-2-0-2--|
=========================
nh........|------------------------------||------------------------------||------------------------------||-22---------------------------||-22---------------------------||-22----0-2-0-2-2-5-5-5--------|
4x =======================
|-----------------------------||-----------------------------||-----------------------------||-2202-2202-0232--------------||-2202-2202-0232--------------||-2202-2202-0232--------------|
3x =======================
pm..............................|-------------------------------||-------------------------------||-------------------------------||-------------------------------||----------------------3333~ ---||-2222~ 0000~ 3333~ ------------|
=========================
|--------------------------------||--------------------------------||--------------------------------||-22-555~ 0-22-55~ --------------||-22-333~ 0-22-33~ --------------||-22------0-22-------------------|
2x =======================
|-------------------------------||-------------------------------||-------------------------------||-222~ 555~ 555~ ---------------||-222~ 555~ 333~ ---------------||-222~ 555~ --------------------|
2x =======================
|-------------------------------||-------------------------------||-------------------------------||-22----------------------------||-22----------------------------||-22----0-2-0-2-2-0-2-3-2-0-2---|
3x =======================
pm..............................|-------------------------------||-------------------------------||-------------------------------||-------------------------------||----------------------3333~----||-2222~ 0000~ 3333~ ------------|
=========================
|-------------------------------||-------------------------------||-------------------------------||-22-555~ 0-22-55~ -------------||-22-333~ 0-22-33~ -------------||-22------0-22------------------|
2x =======================
|-------------------------------||-------------------------------||-------------------------------||-222~ 555~ 555~ ---------------||-222~ 555~ 333~ ---------------||-222~ 555~ --------------------|
3x =======================
|-------------------------------||-------------------------------||-------------------------------||-22----------------------------||-22----------------------------||-22----0-2-0-2-2-0-2-3-2-0-2---|
========================= nh........
|-------------------------------||-------------------------------||-------------------------------||-22----------------------------||-22----------------------------||-22----0-2-0-2-2-5-5-5---------|
8x =======================
|-------------------------------||-------------------------------||-------------------------------||-2202-2202-0232----------------||-2202-2202-0232----------------||-2202-2202-0232----------------|
3x =======================
|-------------------------------||-------------------------------||-------------------------------||-222~ 555~ 555~ ---------------||-222~ 555~ 333~ ---------------||-222~ 555~ --------------------|
2x========================
|--------------------------------||--------------------------------||--------------------------------||-22-555~ 0-22-55~ 0-------------||-22-333~ 0-22-33~ 0-------------||-22------0-22-----0-------------|
Please rate this tab:
x1.0