Love Story tab with lyrics by Tsol - Easy chords and tabs for guitar

Tsol – Love Story tab

Bass.

Play the intro using the staccato technique.

------------------------------------------------------------|------------------------------------------------------------|-5-------------------7-----10-10--------5-------------------|-5-------------------7-----10-10--------5-------------------|-3-------------------5-----8--8---------3-------------------|------------------------------------------------------------|
-8-8-8--5-5-5--8-8-8--5-5-5--8---8-----------------------------------|-8-8-8--5-5-5--8-8-8--5-5-5--8---8-----------------------------------|-----------------------------------------7--7-7-7-7-7-7-------5--5-5-|-----------------------------------------7--7-7-7-7-7-7-------5--5-5-|-------------------------------------5*--5--5-5-5-5-5-5---3*--3--3-3-|---------------------------------------------------------------------|
-----------------------------------------8-8-8--5-5-5--8-8-8--5-5-5-8-|-----------------------------------------8-8-8--5-5-5--8-8-8--5-5-5-8-|-5-5-5-5-------7--7-7-7-7--10--10-10-10-------------------------------|-5-5-5-5-------7--7-7-7-7--10--10-10-10-------------------------------|-3-3-3-3---5*--5--5-5-5-5--8---8--8--8--------------------------------|----------------------------------------------------------------------|
Verse:----------------------------------------------------------------|----------------------------------------------------------------|-7--7--7--7--5---5----7--7--7--7--5---5---7--7--7--7--5---5-----|-7--7--7--7--5---5----7--7--7--7--5---5---7--7--7--7--5---5-----|-5--5--5--5--3---3----5--5--5--5--3---3---5--5--5--5--3---3-----|----------------------------------------------------------------|
----------------------------------------------------------------|----------------------------------------------------------------|-7--7--7--7--5---5----7--7--7--7--5---5---7--7--7--7--5---5-----|-7--7--7--7--5---5----7--7--7--7--5---5---7--7--7--7--5---5-----|-5--5--5--5--3---3----5--5--5--5--3---3---5--5--5--5--3---3-----|----------------------------------------------------------------|
Chorus:------------------------------------------------------------------|------------------------------------------------------------------|-----------------------5-5-5--7-------------------------5-5-5--7--|-7--7--7----9--9--9----5-5-5--7---7--7--7----9--9--9----5-5-5--7--|-7--7--7----9--9--9----3-3-3--5---7--7--7----9--9--9----3-3-3--5--|-5--5--5----7--7--7---------------5--5--5----7--7--7--------------|
------------------------------------------------------------------|------------------------------------------------------------------|-----------------------5-5-5--7-------------------------5-5-5--7--|-7--7--7----9--9--9----5-5-5--7---7--7--7----9--9--9----5-5-5--7--|-7--7--7----9--9--9----3-3-3--5---7--7--7----9--9--9----3-3-3--5--|-5--5--5----7--7--7---------------5--5--5----7--7--7--------------|
Verse:----------------------------------------------------------------|----------------------------------------------------------------|-7--7--7--7--5---5----7--7--7--7--5---5---7--7--7--7--5---5-----|-7--7--7--7--5---5----7--7--7--7--5---5---7--7--7--7--5---5-----|-5--5--5--5--3---3----5--5--5--5--3---3---5--5--5--5--3---3-----|----------------------------------------------------------------|
----------------------------------------------------------------|----------------------------------------------------------------|-7--7--7--7--5---5----7--7--7--7--5---5---7--7--7--7--5---5-----|-7--7--7--7--5---5----7--7--7--7--5---5---7--7--7--7--5---5-----|-5--5--5--5--3---3----5--5--5--5--3---3---5--5--5--5--3---3-----|----------------------------------------------------------------|
Chorus:------------------------------------------------------------------|------------------------------------------------------------------|-----------------------5-5-5--7-------------------------5-5-5--7--|-7--7--7----9--9--9----5-5-5--7---7--7--7----9--9--9----5-5-5--7--|-7--7--7----9--9--9----3-3-3--5---7--7--7----9--9--9----3-3-3--5--|-5--5--5----7--7--7---------------5--5--5----7--7--7--------------|
------------------------------------------------------------------|------------------------------------------------------------------|-----------------------5-5-5--7-------------------------5-5-5--7--|-7--7--7----9--9--9----5-5-5--7---7--7--7----9--9--9----5-5-5--7--|-7--7--7----9--9--9----3-3-3--5---7--7--7----9--9--9----3-3-3--5--|-5--5--5----7--7--7---------------5--5--5----7--7--7--------------|
Solo:-7---------7\----5---------5/----7--------10-----------10\---5-----|---8-------8\------6-------6/------8-----------8--------8\-----6---|-----9-----9\--------7-----7/--------9-------------9----9\-------7-|-------------------------------------------------------------------|-------------------------------------------------------------------|-------------------------------------------------------------------|
-7---------7\----5---------5/----7--------10-----------10\---5-----|---8-------8\------6-------6/------8-----------8--------8\-----6---|-----9-----9\--------7-----7/--------9-------------9----9\-------7-|-------------------------------------------------------------------|-------------------------------------------------------------------|-------------------------------------------------------------------|
------------|------------|------------|-10-10--11--|-10-10--11--|-8--8---9---|
Verse:----------------------------------------------------------------|----------------------------------------------------------------|-7--7--7--7--5---5----7--7--7--7--5---5---7--7--7--7--5---5-----|-7--7--7--7--5---5----7--7--7--7--5---5---7--7--7--7--5---5-----|-5--5--5--5--3---3----5--5--5--5--3---3---5--5--5--5--3---3-----|----------------------------------------------------------------|
----------------------------------------------------------------|----------------------------------------------------------------|-7--7--7--7--5---5----7--7--7--7--5---5---7--7--7--7--5---5-----|-7--7--7--7--5---5----7--7--7--7--5---5---7--7--7--7--5---5-----|-5--5--5--5--3---3----5--5--5--5--3---3---5--5--5--5--3---3-----|----------------------------------------------------------------|
Chorus:------------------------------------------------------------------|------------------------------------------------------------------|-----------------------5-5-5--7-------------------------5-5-5--7--|-7--7--7----9--9--9----5-5-5--7---7--7--7----9--9--9----5-5-5--7--|-7--7--7----9--9--9----3-3-3--5---7--7--7----9--9--9----3-3-3--5--|-5--5--5----7--7--7---------------5--5--5----7--7--7--------------|
----------------------------------------------------------------|----------------------------------------------------------------|-----------------------5-5-5--7---------------------------------|-7--7--7----9--9--9----5-5-5--7---7--7--7----9--9--9----5-5-5---|-7--7--7----9--9--9----3-3-3--5---7--7--7----9--9--9----5-5-5---|-5--5--5----7--7--7---------------5--5--5----7--7--7----3-3-3---|
Interlude: Wait for the bass to come in, as like the intro and then incorporate staccato.
------------------------------------------------------------|------------------------------------------------------------|-5-------------------7-----10-10--------5-------------------|-5-------------------7-----10-10--------5-------------------|-3-------------------5-----8--8---------3-------------------|------------------------------------------------------------|
-8-8-8--5-5-5--8-8-8--5-5-5--8---8--|-8-8-8--5-5-5--8-8-8--5-5-5--8---8--|------------------------------------|------------------------------------|------------------------------------|------------------------------------|
Chorus:------------------------------------------------------------------|------------------------------------------------------------------|-----------------------5-5-5--7-------------------------5-5-5--7--|-7--7--7----9--9--9----5-5-5--7---7--7--7----9--9--9----5-5-5--7--|-7--7--7----9--9--9----3-3-3--5---7--7--7----9--9--9----3-3-3--5--|-5--5--5----7--7--7---------------5--5--5----7--7--7--------------|
----------------------------------------------------------------|----------------------------------------------------------------|-----------------------5-5-5--7---------------------------------|-7--7--7----9--9--9----5-5-5--7---7--7--7----9--9--9----5-5-5---|-7--7--7----9--9--9----3-3-3--5---7--7--7----9--9--9----5-5-5---|-5--5--5----7--7--7---------------5--5--5----7--7--7----3-3-3---|
Please rate this tab:
x1.0