Tsol - Sounds Of Laughter tab

Intro:-----------------------------------|---------------------------------------------------------------------|-----------------------------------4------4/5-------5----------7-----|-4------4/5-------5----------7-----4------4/5-------5-7------7-7-----|-4------4/5-------5-7------7-7-----2------2/3-------3-7------7-5-----|-2------2/3-------3-7------7-5------------------------5------5-------|--------------------5------5------
-----------------------------------|---------------------------------------------------------------------|-----------------------------------4------4/5-------5----------7-----|-4------4/5-------5----------7-----4------4/5-------5-7------7-7-----|-4------4/5-------5-7------7-7-----2------2/3-------3-7------7-5-----|-2------2/3-------3-7------7-5------------------------5------5-------|--------------------5------5------
Verse:-------------------------------------------------|-------------------------------------------------|-4--4-4-4-4--5--5-5-5-5--------------7--7-7-7-7--|-4--4-4-4-4--5--5-5-5-5--7--7-7-7-7--7--7-7-7-7--|-2--2-2-2-2--3--3-3-3-3--7--7-7-7-7--5--5-5-5-5--|-------------------------5--5-5-5-5--------------|
------------------------------10----10----10-----|-----7---------8------10-8-7--10----10----10-----|---7---7------8--8---------------12^---12^-------|-9-------9--10-----------------------------------|-------------------------------------------------|-------------------------------------------------|
-------------------------------------------------|-------------------------------------------------|-4--4-4-4-4--5--5-5-5-5--------------7--7-7-7-7--|-4--4-4-4-4--5--5-5-5-5--7--7-7-7-7--7--7-7-7-7--|-2--2-2-2-2--3--3-3-3-3--7--7-7-7-7--5--5-5-5-5--|-------------------------5--5-5-5-5--------------|
------------------------------10----10----10-----|-----7---------8------10-8-7--10----10----10-----|---7---7------8--8---------------12^---12^-------|-9-------9--10-----------------------------------|-------------------------------------------------|-------------------------------------------------|
Chorus:----------------------------------------------------------------------|----------------------------------------------------------------------|-6-6--6-6-6--9-9--9-9-9--6-6--6-6-6--9-9--9-9-9--6-6--6-6-6--7-7--7-7-|-6-6--6-6-6--9-9--9-9-9--6-6--6-6-6--9-9--9-9-9--6-6--6-6-6--7-7--7-7-|-4-4--4-4-4--7-7--7-7-7--4-4--4-4-4--7-7--7-7-7--4-4--4-4-4--7-7--7-7-|----------------------------------------------------------------------|
---------------------------------------------------------------------|---------------------------------------------------------------------|-11-11-11-11-11--7-7--7-7-7-7----11-11--11-11-11--7-7--7-7-7-7-------|-11-11-11-11-11--7-7--7-7-7-7----11-11--11-11-11--7-7--7-7-7-7-------|-9--9--9--9--9---5-5--5-5-5-5----9--9---9--9--9---5-5--5-5-5-5-------|---------------------------------------------------------------------|
------------------------------|------------------------------|-11-11-11-11-11--7-7--7-7-7-7-|-11-11-11-11-11--7-7--7-7-7-7-|-9--9--9--9--9---5-5--5-5-5-5-|------------------------------|
Second Intro:-----------------------------------|---------------------------------------------------------------------|-----------------------------------4------4/5-------5/6------6-7-----|-4------4/5-------5/6------6-7-----4------4/5-------5/6------6-7-----|-4------4/5-------5/6------6-7----2------2/3-------3/4------4-5-----|-2------2/3-------3/4------4-5---------------------------------------|----------------------------------
-----------------------------------|---------------------------------------------------------------------|-----------------------------------4------4/5-------5/6------6-7-----|-4------4/5-------5/6------6-7-----4------4/5-------5/6------6-7-----|-4------4/5-------5/6------6-7----2------2/3-------3/4------4-5-----|-2------2/3-------3/4------4-5---------------------------------------|----------------------------------
Verse:-------------------------------------------------|-------------------------------------------------|-4--4-4-4-4--5--5-5-5-5--------------7--7-7-7-7--|-4--4-4-4-4--5--5-5-5-5--7--7-7-7-7--7--7-7-7-7--|-2--2-2-2-2--3--3-3-3-3--7--7-7-7-7--5--5-5-5-5--|-------------------------5--5-5-5-5--------------|
-------------------------------------------------|-------------------------------------------------|-4--4-4-4-4--5--5-5-5-5--------------7--7-7-7-7--|-4--4-4-4-4--5--5-5-5-5--7--7-7-7-7--7--7-7-7-7--|-2--2-2-2-2--3--3-3-3-3--7--7-7-7-7--5--5-5-5-5--|-------------------------5--5-5-5-5--------------|
-------------------------------------------------|-------------------------------------------------|-4--4-4-4-4--5--5-5-5-5--------------7--7-7-7-7--|-4--4-4-4-4--5--5-5-5-5--7--7-7-7-7--7--7-7-7-7--|-2--2-2-2-2--3--3-3-3-3--7--7-7-7-7--5--5-5-5-5--|-------------------------5--5-5-5-5--------------|
-------------------------------------------------|-------------------------------------------------|-4--4-4-4-4--5--5-5-5-5--------------7--7-7-7-7--|-4--4-4-4-4--5--5-5-5-5--7--7-7-7-7--7--7-7-7-7--|-2--2-2-2-2--3--3-3-3-3--7--7-7-7-7--5--5-5-5-5--|-------------------------5--5-5-5-5--------------|
Chorus:----------------------------------------------------------------------|----------------------------------------------------------------------|-6-6--6-6-6--9-9--9-9-9--6-6--6-6-6--9-9--9-9-9--6-6--6-6-6--7-7--7-7-|-6-6--6-6-6--9-9--9-9-9--6-6--6-6-6--9-9--9-9-9--6-6--6-6-6--7-7--7-7-|-4-4--4-4-4--7-7--7-7-7--4-4--4-4-4--7-7--7-7-7--4-4--4-4-4--7-7--7-7-|----------------------------------------------------------------------|
---------------------------------------------------------------------|---------------------------------------------------------------------|-11-11-11-11-11--7-7--7-7-7-7----11-11--11-11-11--7-7--7-7-7-7-------|-11-11-11-11-11--7-7--7-7-7-7----11-11--11-11-11--7-7--7-7-7-7-------|-9--9--9--9--9---5-5--5-5-5-5----9--9---9--9--9---5-5--5-5-5-5-------|---------------------------------------------------------------------|
------------------------------|------------------------------|-11-11-11-11-11--7-7--7-7-7-7-|-11-11-11-11-11--7-7--7-7-7-7-|-9--9--9--9--9---5-5--5-5-5-5-|------------------------------|
Bridge:
------------------------------------------------------------|------------------------------------------------------------|-6-6-6--6-6-6--6-6-6--6-6-6---4-4-4--4-4-4--9-9-9--9-9-9----|-6-6-6--6-6-6--6-6-6--6-6-6---4-4-4--4-4-4--9-9-9--9-9-9----|-4-4-4--4-4-4--4-4-4--4-4-4---2-2-2--2-2-2--7-7-7--7-7-7----|------------------------------------------------------------|
-----------------------------|-----------------------------|-----------------------------|-7-7-7--7-7-7--7-7-7--7-7-7--|-7-7-7--7-7-7--7-7-7--7-7-7--|-5-5-5--5-5-5--5-5-5--5-5-5--|
------------------------------------------------------------|------------------------------------------------------------|-6-6-6--6-6-6--6-6-6--6-6-6---4-4-4--4-4-4--9-9-9--9-9-9----|-6-6-6--6-6-6--6-6-6--6-6-6---4-4-4--4-4-4--9-9-9--9-9-9----|-4-4-4--4-4-4--4-4-4--4-4-4---2-2-2--2-2-2--7-7-7--7-7-7----|------------------------------------------------------------|
-----------------------------|-----------------------------|-----------------------------|-7-7-7--7-7-7--7-7-7--7-7-7--|-7-7-7--7-7-7--7-7-7--7-7-7--|-5-5-5--5-5-5--5-5-5--5-5-5--|
Third Intro:-----------------------------------|---------------------------------------------------------------------|-----------------------------------4------4/5-------5----------7-----|-4------4/5-------5----------7-----4------4/5-------5-7------7-7-----|-4------4/5-------5-7------7-7-----2------2/3-------3-7------7-5-----|-2------2/3-------3-7------7-5------------------------5------5-------|--------------------5------5------
-----------------------------------|---------------------------------------------------------------------|-----------------------------------4------4/5-------5----------7-----|-4------4/5-------5----------7-----4------4/5-------5-7------7-7-----|-4------4/5-------5-7------7-7-----2------2/3-------3-7------7-5-----|-2------2/3-------3-7------7-5------------------------5------5-------|--------------------5------5------
Verse:-------------------------------------------------|-------------------------------------------------|-4--4-4-4-4--5--5-5-5-5--------------7--7-7-7-7--|-4--4-4-4-4--5--5-5-5-5--7--7-7-7-7--7--7-7-7-7--|-2--2-2-2-2--3--3-3-3-3--7--7-7-7-7--5--5-5-5-5--|-------------------------5--5-5-5-5--------------|
------------------------------10----10----10-----|-----7---------8------10-8-7--10----10----10-----|---7---7------8--8---------------12^---12^-------|-9-------9--10-----------------------------------|-------------------------------------------------|-------------------------------------------------|
-------------------------------------------------|-------------------------------------------------|-4--4-4-4-4--5--5-5-5-5--------------7--7-7-7-7--|-4--4-4-4-4--5--5-5-5-5--7--7-7-7-7--7--7-7-7-7--|-2--2-2-2-2--3--3-3-3-3--7--7-7-7-7--5--5-5-5-5--|-------------------------5--5-5-5-5--------------|
------------------------------10----10----10-----|-----7---------8------10-8-7--10----10----10-----|---7---7------8--8---------------12^---12^-------|-9-------9--10-----------------------------------|-------------------------------------------------|-------------------------------------------------|
Chorus:----------------------------------------------------------------------|----------------------------------------------------------------------|-6-6--6-6-6--9-9--9-9-9--6-6--6-6-6--9-9--9-9-9--6-6--6-6-6--7-7--7-7-|-6-6--6-6-6--9-9--9-9-9--6-6--6-6-6--9-9--9-9-9--6-6--6-6-6--7-7--7-7-|-4-4--4-4-4--7-7--7-7-7--4-4--4-4-4--7-7--7-7-7--4-4--4-4-4--7-7--7-7-|----------------------------------------------------------------------|
---------------------------------------------------------------------|---------------------------------------------------------------------|-11-11-11-11-11--7-7--7-7-7-7----11-11--11-11-11--7-7--7-7-7-7-------|-11-11-11-11-11--7-7--7-7-7-7----11-11--11-11-11--7-7--7-7-7-7-------|-9--9--9--9--9---5-5--5-5-5-5----9--9---9--9--9---5-5--5-5-5-5-------|---------------------------------------------------------------------|
-------------------|-------------------|-11-11-11-11-11-7--|-11-11-11-11-11-7--|-9--9--9--9--9--5--|-------------------|
Tap to rate this tab
 
# A B C D E F G H I J K L M N O P Q R S T U V W X Y Z