Tsol - Superficial Love tab

Intro:---------------------------|---------------------------|---------------------------|---------------------------|------10-10-10--9-9-9--7---|------10-10-10--9-9-9--7---|-9-9--10-10-10--9-9-9--7-7-|-9-9--10-10-10--9-9-9--7-7-|-9-9--8--8--8---7-7-7--5-7-|-9-9--8--8--8---7-7-7--5-7-|-7-7---------------------5-|-7-7---------------------5-|
---------------------------|---------------------------|---------------------------|---------------------------|------10-10-10--9-9-9--7---|------10-10-10--9-9-9--7---|-9-9--10-10-10--9-9-9--7-7-|-9-9--10-10-10--9-9-9--7-7-|-9-9--8--8--8---7-7-7--5-7-|-9-9--8--8--8---7-7-7--5-7-|-7-7---------------------5-|-7-7---------------------5-|
Verse:---------------------------|---------------------------|---------------------------|---------------------------|------10-10-10--9-9-9--7---|------10-10-10--9-9-9--7---|-9-9--10-10-10--9-9-9--7-7-|-9-9--10-10-10--9-9-9--7-7-|-9-9--8--8--8---7-7-7--5-7-|-9-9--8--8--8---7-7-7--5-7-|-7-7---------------------5-|-7-7---------------------5-|
---------------------------|---------------------------|---------------------------|---------------------------|------10-10-10--9-9-9--7---|------10-10-10--9-9-9--7---|-9-9--10-10-10--9-9-9--7-7-|-9-9--10-10-10--9-9-9--7-7-|-9-9--8--8--8---7-7-7--5-7-|-9-9--8--8--8---7-7-7--5-7-|-7-7---------------------5-|-7-7---------------------5-|
Chorus:-------------------------|-------------------------|-------------------------|-------------------------|-9-9/(10)-10-------------|-9-9/(10)-10-------------|-9-9/(10)-10--12-12--13--|-9-9/(10)-10--12-12--13--|-7-7/(8)--8---12-12--13--|-7-7/(8)--8---12-12--13--|--------------10-10--11--|--------------10-10--11--|
-------------------------|---------------9------9--|-------------------------|---------------9------9--|-9-9/(10)-10-------------|-9-9/(10)-10-----11^-----|-9-9/(10)-10-------------|-9-9/(10)-10--12-12--13--|-7-7/(8)--8--------------|-7-7/(8)--8---12-12--13--|-------------------------|--------------10-10--11--|
Verse:---------------------------|---------------------------|---------------------------|---------------------------|------10-10-10--9-9-9--7---|------10-10-10--9-9-9--7---|-9-9--10-10-10--9-9-9--7-7-|-9-9--10-10-10--9-9-9--7-7-|-9-9--8--8--8---7-7-7--5-7-|-9-9--8--8--8---7-7-7--5-7-|-7-7---------------------5-|-7-7---------------------5-|
---------------------------|---------------------------|---------------------------|---------------------------|------10-10-10--9-9-9--7---|------10-10-10--9-9-9--7---|-9-9--10-10-10--9-9-9--7-7-|-9-9--10-10-10--9-9-9--7-7-|-9-9--8--8--8---7-7-7--5-7-|-9-9--8--8--8---7-7-7--5-7-|-7-7---------------------5-|-7-7---------------------5-|
Bridge:----------------------|----------------------|----------------------|----------------------|----------------------|----------------------|----10\---------------|----10\---------------|----10\---------------|-9--10\---------------|-9--10\---------------|-9--10\---------------|-9--8\---0-0-0-0-0-0-0|-9--8\---0-0-0-0-0-0-0|-9--8\---0-0-0-0-0-0-0|-7--------------------|-7--------------------|-7--------------------|
----------------------|----------------------|----------------------|-9--10\---------------|-9--8\---0-0-0-0-0-0-0|-7--------------------|
Interlude: (Note: In the beginning, its Bass Only, so here's the bass part arranged for guitar, and then the guitar:)
-----------------------------------------------|-----------------------------------------------|-----------------------------------------------|------8-8-8-7-7-7--5---------8-8-8-7-7-7--5----|--7-7----------------5---7-7----------------5--|
Bridge #2:---------------9------9--|---------------9------9--|---------------9------9--|---------------9------9--|-9-9/(10)-10-----11^-----|-9-9/(10)-10-----11^-----|-9-9/(10)-10-------------|-9-9/(10)-10--12-12--13--|-7-7/(8)--8--------------|-7-7/(8)--8---12-12--13--|-------------------------|--------------10-10--11--|
---------------9------9--|---------------9------9--|---------------9------9--|---------------9------9--|-9-9/(10)-10-----11^-----|-9-9/(10)-10-----11^-----|-9-9/(10)-10-------------|-9-9/(10)-10--12-12--13--|-7-7/(8)--8--------------|-7-7/(8)--8---12-12--13--|-------------------------|--------------10-10--11--|
Verse:---------------------------|---------------------------|---------------------------|---------------------------|------10-10-10--9-9-9--7---|------10-10-10--9-9-9--7---|-9-9--10-10-10--9-9-9--7-7-|-9-9--10-10-10--9-9-9--7-7-|-9-9--8--8--8---7-7-7--5-7-|-9-9--8--8--8---7-7-7--5-7-|-7-7---------------------5-|-7-7---------------------5-|
---------------------------|-------------|---------------------------|-------------|------10-10-10--9-9-9--7---|------10\----|-9-9--10-10-10--9-9-9--7-7-|-9-9--10\----|-9-9--8--8--8---7-7-7--5-7-|-9-9--8\-----|-7-7---------------------5-|-7-7---------|
Tap to rate this tab
 
# A B C D E F G H I J K L M N O P Q R S T U V W X Y Z