Tsol - Im Tired Of Life tab

Intro:-----------------------|-----------------------|-2\--------------------|-2\--------------------|-0\--------------------|-----------------------|
Use the whammy(tremolo) bar while playing the intro E chord.
Verse:-----------------------------------0--0------------------0----|-------0----------3---------------0---0----0-0-----------0----|-----0----------3----3----------0-----0--0-0-0-----------0----|---2----------2--------2-------2---------2-2-2-------2---2----|-0----------3----------------2-----------2-2-2------2----2----|--------------------------0--------------0-0-0----0------0----|
-----------------------------------0--0------------------0----|-------0----------3---------------0---0----0-0-----------0----|-----0----------3----3----------0-----0--0-0-0-----------0----|---2----------2--------2-------2---------2-2-2-------2---2----|-0----------3----------------2-----------2-2-2------2----2----|--------------------------0--------------0-0-0----0------0----|
-----------------------------------0--0------------------0----|-------0----------3---------------0---0----0-0-----------0----|-----0----------3----3----------0-----0--0-0-0-----------0----|---2----------2--------2-------2---------2-2-2-------2---2----|-0----------3----------------2-----------2-2-2------2----2----|--------------------------0--------------0-0-0----0------0----|
-----------------------------------0--0------------------0----|-------0----------3---------------0---0----0-0-----------0----|-----0----------3----3----------0-----0--0-0-0-----------0----|---2----------2--------2-------2---------2-2-2-------2---2----|-0----------3----------------2-----------2-2-2------2----2----|--------------------------0--------------0-0-0----0------0----|
Chorus:----3--3--3-------------------------3--3--3---------------------|----0--0--0-------------------------0--0--0---------------------|----0--0--0----2--2-2-2--2-2-2------0--0--0----2--2-2-2--2-2-2--|----0--0--0----2--2-2-2--2-2-2------0--0--0----2--2-2-2--2-2-2--|---------------0--0-0-0--0-0-0-----------------0--0-0-0--0-0-0--|-3--3--3--3----------------------3--3--3--3---------------------|
----------------------------------------------------------------|----------------------------------------------------------------|-------0----------0-------------0------------------0------------|----2----2------2---2---------2----2---2---------2----2---2-----|-3------------2----------0-----------0-----0------------0-------|----------------------------------------------------------------|
----3--3--3----------------------0---------------|----0--0--0-----------------------0--------------|----0--0--0----2--2-2-2--2-2-2-----0-------------|----0--0--0----2--2-2-2--2-2-2------2------------|---------------0--0-0-0--0-0-0-------2-----------|-3--3--3--3---------------------------0----------|
Verse:-----------------------------------0--0------------------0----|-------0----------3---------------0---0----0-0-----------0----|-----0----------3----3----------0-----0--0-0-0-----------0----|---2----------2--------2-------2---------2-2-2-------2---2----|-0----------3----------------2-----------2-2-2------2----2----|--------------------------0--------------0-0-0----0------0----|
-----------------------------------0--0------------------0----|-------0----------3---------------0---0----0-0-----------0----|-----0----------3----3----------0-----0--0-0-0-----------0----|---2----------2--------2-------2---------2-2-2-------2---2----|-0----------3----------------2-----------2-2-2------2----2----|--------------------------0--------------0-0-0----0------0----|
-----------------------------------0--0------------------0----|-------0----------3---------------0---0----0-0-----------0----|-----0----------3----3----------0-----0--0-0-0-----------0----|---2----------2--------2-------2---------2-2-2-------2---2----|-0----------3----------------2-----------2-2-2------2----2----|--------------------------0--------------0-0-0----0------0----|
-----------------------------------0--0------------------0----|-------0----------3---------------0---0----0-0-----------0----|-----0----------3----3----------0-----0--0-0-0-----------0----|---2----------2--------2-------2---------2-2-2-------2---2----|-0----------3----------------2-----------2-2-2------2----2----|--------------------------0--------------0-0-0----0------0----|
Chorus:----3--3--3-------------------------3--3--3---------------------|----0--0--0-------------------------0--0--0---------------------|----0--0--0----2--2-2-2--2-2-2------0--0--0----2--2-2-2--2-2-2--|----0--0--0----2--2-2-2--2-2-2------0--0--0----2--2-2-2--2-2-2--|---------------0--0-0-0--0-0-0-----------------0--0-0-0--0-0-0--|-3--3--3--3----------------------3--3--3--3---------------------|
----------------------------------------------------------------|----------------------------------------------------------------|-------0----------0-------------0------------------0------------|----2----2------2---2---------2----2---2---------2----2---2-----|-3------------2----------0-----------0-----0------------0-------|----------------------------------------------------------------|
----3--3--3----------------------0---------------|----0--0--0-----------------------0--------------|----0--0--0----2--2-2-2--2-2-2-----0-------------|----0--0--0----2--2-2-2--2-2-2------2------------|---------------0--0-0-0--0-0-0-------2-----------|-3--3--3--3---------------------------0----------|
Verse:-----------------------------------0--0------------------0----|-------0----------3---------------0---0----0-0-----------0----|-----0----------3----3----------0-----0--0-0-0-----------0----|---2----------2--------2-------2---------2-2-2-------2---2----|-0----------3----------------2-----------2-2-2------2----2----|--------------------------0--------------0-0-0----0------0----|
-----------------------------------0--0------------------0----|-------0----------3---------------0---0----0-0-----------0----|-----0----------3----3----------0-----0--0-0-0-----------0----|---2----------2--------2-------2---------2-2-2-------2---2----|-0----------3----------------2-----------2-2-2------2----2----|--------------------------0--------------0-0-0----0------0----|
-----------------------------------0--0------------------0----|-------0----------3---------------0---0----0-0-----------0----|-----0----------3----3----------0-----0--0-0-0-----------0----|---2----------2--------2-------2---------2-2-2-------2---2----|-0----------3----------------2-----------2-2-2------2----2----|--------------------------0--------------0-0-0----0------0----|
-----------------------------------0--0------------------0----|-------0----------3---------------0---0----0-0-----------0----|-----0----------3----3----------0-----0--0-0-0-----------0----|---2----------2--------2-------2---------2-2-2-------2---2----|-0----------3----------------2-----------2-2-2------2----2----|--------------------------0--------------0-0-0----0------0----|
Chorus:----3--3--3-------------------------3--3--3---------------------|----0--0--0-------------------------0--0--0---------------------|----0--0--0----2--2-2-2--2-2-2------0--0--0----2--2-2-2--2-2-2--|----0--0--0----2--2-2-2--2-2-2------0--0--0----2--2-2-2--2-2-2--|---------------0--0-0-0--0-0-0-----------------0--0-0-0--0-0-0--|-3--3--3--3----------------------3--3--3--3---------------------|
----------------------------------------------------------------|----------------------------------------------------------------|-------0----------0-------------0------------------0------------|----2----2------2---2---------2----2---2---------2----2---2-----|-3------------2----------0-----------0-----0------------0-------|----------------------------------------------------------------|
Outro(Fade Out)
----------------------------|----------------------------|-------------12-------------|---------14-----14------14--|-12-----------------12------|----------------------------|
Tap to rate this tab
 
# A B C D E F G H I J K L M N O P Q R S T U V W X Y Z