Tsunami Bomb - My Machete tab

TSUNAMI BOMB
MY MACHETE

Transcription by Samoth


INTRO

|-----------------------------------------||-----------------------------------------||-9-9-9-9-9-9-9-9-10-10-10-10-10-10-10-10-||-9-9-9-9-9-9-9-9-10-10-10-10-10-10-10-10-||-7-7-7-7-7-7-7-7--8--8--8--8--8--8--8--8-||-----------------------------------------|
|-----------------------------------------------------------------||-----------------------------------------------------------------||-----------------------------------------------------------------||-5-5-5-5-5-5-5-5-5-5-5-5-5-5-5-5-7-7-7-7-7-7-7-7-7-7-7-7-7-7-7-7-||-5-5-5-5-5-5-5-5-5-5-5-5-5-5-5-5-7-7-7-7-7-7-7-7-7-7-7-7-7-7-7-7-||-3-3-3-3-3-3-3-3-3-3-3-3-3-3-3-3-5-5-5-5-5-5-5-5-5-5-5-5-5-5-5-5-|
|--------------------------------||--------------------------------||-5-5-5-5-5-5-5-5----------------||-5-5-5-5-5-5-5-5--------0-5-0-4-||-3-3-3-3-3-3-3-3------2---------||------------------0-3-----------|
RIFF 1
|-----------------------------------------------------------------||-----------------------------------------------------------------||-5-5-5-5-5-5-5-5-5-5-5-5-5-5-5-5---------------------------------||-5-5-5-5-5-5-5-5-5-5-5-5-5-5-5-5-2-2-2-2-2-2-2-2-2-2-2-2-2-2-2-2-| X 2|-3-3-3-3-3-3-3-3-3-3-3-3-3-3-3-3-2-2-2-2-2-2-2-2-2-2-2-2-2-2-2-2-||---------------------------------0-0-0-0-0-0-0-0-0-0-0-0-0-0-0-0-| . . . . . . . . . . . . . . .
RIFF 2
|----------------------------------------------------------------------||----------------------------------------------------------------------||----------------5-5-5-11-11-11-7-7-7-4-4-4----------------------------||-------0-5-0-4--5-5-5-11-11-11-7-7-7-4-4-4-2--22-222-22-222-22-222-22-||-----2----------3-3-3--9--9--9-5-5-5-2-2-2-2--22-222-22-222-22-222-22-||-0-3---------------------------------------0--00-000-00-000-00-000-00-| .. ... .. ... .. ... ..
|--------------------------------------------||--------------------------------------------||-5-5-5-11-11-11-7-7-7-4-4-4-9-9-9-9-9-9-9-9-||-5-5-5-11-11-11-7-7-7-4-4-4-9-9-9-9-9-9-9-9-||-3-3-3--9--9--9-5-5-5-2-2-2-7-7-7-7-7-7-7-7-||--------------------------------------------|
RIFF 3
|------------------------------------------------------------------------------------||------------------------------------------------------------------------------------||-------4:------------------------------------4:-------------------------------------||-5---5-----7--7-7-7-7-7--2--2-2-2-2-2--5---5-----7--7-7-7-7-7-7-7-7-7-7-7-7-7-7-7-7-||-5-5-------7--7-7-7-7-7--2--2-2-2-2-2--5-5-------7--7-7-7-7-7-7-7-7-7-7-7-7-7-7-7-7-||-3---------5--5-5-5-5-5--0--0-0-0-0-0--3---------5--5-5-5-5-5-5-5-5-5-5-5-5-5-5-5-5-| . . . . . . . . . . . . . . . .
CHORUS
|---------------------------------------------------------------||---------------------------------------------------------------||-9-9-9-------11-11-11-12-12-12---------------------------------||-9-9-9-9-9-9-11-11-11-12-12-12-7-7-7-7-7-7-7-7-7-7-7-7-7-7-7-7-| X 2|-7-7-7-9-9-9--9--9--9-10-10-10-7-7-7-7-7-7-7-7-7-7-7-7-7-7-7-7-||-------7-7-7-------------------5-5-5-5-5-5-5-5-5-5-5-5-5-5-5-5-|
|------------------------------------------------------||------------------------------------------------------||-9-9-9-------11-11-11-7-7-7-7-7-7-7-7-8-8-8-8-8-8-8-8-||-9-9-9-9-9-9-11-11-11-7-7-7-7-7-7-7-7-8-8-8-8-8-8-8-8-||-7-7-7-9-9-9--9--9--9-5-5-5-5-5-5-5-5-6-6-6-6-6-6-6-6-||-------7-7-7------------------------------------------|
|---------------------------------------------------------------||---------------------------------------------------------------||-9-9-9-------11-11-11-12-12-12---------------------------------||-9-9-9-9-9-9-11-11-11-12-12-12-7-7-7-7-7-7-7-7-7-7-7-7-7-7-7-7-||-7-7-7-9-9-9--9--9--9-10-10-10-7-7-7-7-7-7-7-7-7-7-7-7-7-7-7-7-||-------7-7-7-------------------5-5-5-5-5-5-5-5-5-5-5-5-5-5-5-5-|
RIFF 4
|-----------------2-----||-----7-------------3:--||-5:----7:--------------||-5:----------2:--------| X 2|-3:----------2:--------||-------------0:--------|
BREAK
|-------------------------|-----------------------||---------------0---------|---------------0-----0-||-------4:--2-2-----0-----|-------4:--2-2-----2---||-5---5-----2-----2---4-0-|-5---5-----2-----2-----||-5-5-------0-----2-------|-5-5-------0-----2-----||-3---------------0-------|-3---------------0-----|
|-------------------------|----------------------------------------------||---------------0---------|----------------------------------------------||-------4:--2-2-----0-----|-------4:-------------------------------------||-5---5-----2-----2---4-0-|-5---5-----7--7-7-7-7-7-7-7-7-7-7-7-7-7-7-7-7-||-5-5-------0-----2-------|-5-5-------7--7-7-7-7-7-7-7-7-7-7-7-7-7-7-7-7-||-3---------------0-------|-3---------5--5-5-5-5-5-5-5-5-5-5-5-5-5-5-5-5-| . . . . . . . . . . . . . . . .
ENDING
|----------------------------------------------------------||----------------------------------------------------------||-9-9-9-9-9-9-9-9-10-10-10-10-10-10-10-10------------------||-9-9-9-9-9-9-9-9-10-10-10-10-10-10-10-10----4---4---4---4-||-7-7-7-7-7-7-7-7--8--8--8--8--8--8--8--8------------------||------------------------------------------2---2---2---2---|
|--------------------------------------------------|---------------------||--------------------------------------------------|---------------------||-9-9-9-9-9-9-9-9-10-10-10-10-10-10-10-10----------|---------------------||-9-9-9-9-9-9-9-9-10-10-10-10-10-10-10-10----4---4-|-------0-5-0-4-2:--2-||-7-7-7-7-7-7-7-7--8--8--8--8--8--8--8--8----------|-----2---------2:--2-||------------------------------------------2---2---|-0-3-----------0:--0-|
SONG STRUCTURE Intro Riff 1 Riff 2 Riff 3 Chorus Riff 4 Riff 2 Riff 3 Chorus Break Chorus Ending
Tap to rate this tab
 
# A B C D E F G H I J K L M N O P Q R S T U V W X Y Z