Tunng - Tale From Black tab

Artist: Tunng
Song: Tale From Black
Tabbed by: Ben Roberts

Tuning: Standard, Capo on 3
Timing: 3/4

It's not exact, but it is pretty close and sounds good.
Please email brob@hotmail.com with any corrections or suggestions.


Main Riff:

| . | . | . | . | . | . | . | . | . | . | . | . -------------|-------------|-------------|-------------|-3-----0-3---|-1-----0-1---|-------------|-------------|-----2-----2-|-----0-----0-|-2-----0-2---|-2-----0-2---|-0-------0---|-------------|-----2-----2-|-----2-----2-|-------------|-3-------3---|-0-------0---|-0-------0---|-------------|-------------|-------------|-------------|
| . | . | . | . | . | . | . | . | . | . | . | . -------------|-------------|-------------|-------------|-3-----0-3---|-1-----0-1---|-------------|-------------|-----2-----2-|-----0-----0-|-2-----0-2---|-2-----0-2---|-0-------0---|-------------|-----2-----2-|-----2-----2-|-------------|-3-------3---|-0-------0---|-0-------0---|-------------|-------------|-------------|-------------|
| . | . | . | . | . | . | . | . | . | . | . | . -------------|--------------|-------------|-0-----------|-5-----3-5/--|-8-----8-10---|-5-----3-5---|-------3-5---|-----0-----0-|-----7------7-|-----2-----2-|-----2-----2-|-2-------2/--|-5-------5----|-------------|-------------|-------------|--------------|-0-------0---|-0-------0---|-------------|--------------|-------------|-------------|
| . | . | . | . | . | . | . | . | . | . | . | . -------------|-------------|-------------|-------------|-3-----0-3---|-1-----0-1---|-------------|-------------|-----2-----2-|-----0-----0-|-2-----0-2---|-2-----0-2---|-0-------0---|-------------|-----2-----2-|-----2-----2-|-------------|-3-------3---|-0-------0---|-0-------0---|-------------|-------------|-------------|-------------|
Variation:
| . | . | . | . | . | . | . | . | . | . | . | . -5-------5---|-3-------3---|-0-------0---|-0-------0---|-3-----0-3---|-1-----0-1---|-------------|-------------|-----2-----2-|-----0-----0-|-2-----0-2---|-2-----0-2---|-0-------0---|-------------|-----2-----2-|-----2-----2-|-------------|-3-------3---|-0-------0---|-0-------0---|-------------|-------------|-------------|-------------|
| . | . | . | . | . | . | . | . | . | . | . | . -5-------5---|-3-------3---|-0-------0---|-0-------0---|-3-----0-3---|-1-----0-1---|-------------|-------------|-----2-----2-|-----0-----0-|-2-----0-2---|-2-----0-2---|-0-------0---|-------------|-----2-----2-|-----2-----2-|-------------|-3-------3---|-0-------0---|-0-------0---|-------------|-------------|-------------|-------------|
| . | . | . | . | . | . | . | . | . | . | . | . -7-------7---|-5-------5---|-0-------0---|-0-------0---|-5-----3-5---|-8-----8-----|-5-----3-5---|-5-----3-5---|-----0-----0-|-----7-----7-|-----2-----2-|-----2-----2-|-------------|-5-------5---|-------------|-------------|-7-------7---|-------------|-0-------0---|-0-------0---|-------------|-------------|-------------|-------------|
| . | . | . | . | . | . | . | . | . | . | . | . -5-------5---|-3-------3---|-0-------0---|-0-------0---|-3-----0-3---|-1-----0-1---|-------------|-------------|-----2-----2-|-----0-----0-|-2-----0-2---|-2-----0-2---|-0-------0---|-------------|-----2-----2-|-----2-----2-|-------------|-3-------3---|-0-------0---|-0-------0---|-------------|-------------|-------------|-------------|
Tap to rate this tab
 
# A B C D E F G H I J K L M N O P Q R S T U V W X Y Z