Turlough Ocarolan – Petite Suite Irlandaise tab

Tuning: E A D G B E   -   Time Signature: 3/4

| | | | | | ||------------------------|3---------------2-------|||*---------------3-------|0---------------3-------|||------------------------|0-----------------------|||------------------------|------------------------|||*-----------------------|------------------------|||------------------------|3-----------------------|
| | | | | | |0-----------2---3-------|------------------------||1-----------------------|3---------------1-------||------------------------|2-----------------------||------------------------|0-------0---------------||3-----------------------|------------------------||------------------------|------------------------|
| | | | | | |------------------------|------------------------||0-----------------------|1-----------------------||0-----------2---0-------|----2-----------2-------||------------------------|2-----------------------||------------------------|------------------------||3-----------------------|------------------------|
| | | | | | |------------------------|------------------------||0---3-------------------|------------------------||0---------------0-------|----------------0-------||0-----------------------|4---------------2-------||------------------------|5-----------------------||------------------------|------------------------|
| | | | | | |------------------------|3---------------2-------||----------------3-------|0---------------3-------||2-----------------------|0-----------------------||4-----------------------|------------------------||------------------------|------------------------||------------------------|3-----------------------|
| | | | | | |0-----------2---3-------|------------------------||1-----------------------|3---------------1-------||------------------------|2-----------------------||------------------------|0-------0---------------||3-----------------------|------------------------||------------------------|------------------------|
| | | | | | |------------------------|------------------------||0-----------------------|1-----------------------||0-----------2---0-------|----2-----------2-------||------------------------|2-----------------------||------------------------|------------------------||3-----------------------|------------------------|
CODA| | | | | | | |------------------------|------------------------||0---3-------------------|------------------------||0---------------0-------|------------------------||0-----------------------|4-----------------------||------------------------|5-------3---------------||------------------------|----------------5-------|
| | | | | | |------------------------||| 3---------------3-------||----------------3------*|||*------------------------||0-----------------------||| ------------------------||------------------------||| ----------------2-------||-----------------------*|||*2-----------3-----------||3-----------------------||| ------------------------|
| | | | | | |3-----------2---3-------|5h----------7---5-------||------------------------|------------------------||------------------------|------------------------||------------------------|0-----------------------||3-----------------------|------------------------||------------------------|------------------------|
| | | | | | |5-----------------------|7---------------7-------||--------7---------------|------------------------||----------------7-------|0-----------------------||0-----------------------|------------------------||------------------------|------------------------||------------------------|------------------------|
| | | | | | |------------7-----------|2h------3-------0-------||10--------------8-------|------------------------||------------------------|------------------------||------------------------|0-----------------------||9-----------------------|------------------------||------------------------|------------------------|
| | | | | | |--------0h------2-------|3---------------2-------||3-----------------------|0---------------3-------||------------------------|------------------------||------------------------|------------------------||3-----------------------|2-----------------------||------------------------|------------------------|
| | | | | | |0-----------2---3-------|------------------------||1-----------------------|3---------------1-------||------------------------|2-----------------------||------------------------|0-------0---------------||3-----------------------|------------------------||------------------------|------------------------|
| | | | | | |------------------------|------------------------||0-----------------------|1-----------------------||0-----------2---0-------|----2-----------2-------||------------------------|2-----------------------||------------------------|------------------------||3-----------------------|------------------------|
| | | | | | |------------------------|------------------------||0---3-------------------|------------------------||0---------------0-------|------------------------||0-----------------------|4-----------------------||------------------------|5-------3---------------||------------------------|----------------5-------|
D C al CODA||CODA | | | | | | |------------------------||3---------------------|||----------------3------*||0---------------------|||0-----------------------||0---------------------|||------------------------||----------------------|||-----------------------*||----------------------|||3-----------------------||3---------------------||
Please rate this tab:
x1.0