Twisted Sister - The Fire Still Burns tab

---------------------------------------------------------------------------
THE FIRE STILL BURNS – Twisted Sister
---------------------------------------------------------------------------
Tabbed by: Chris
email: igotsomemailinhere@gmail.com

Tuning:E flat (Eb-Ab-Db-Gb-Bb-eb, I had Eb-G#-C#-F#-Bb-eb)

I was looking on this site for tab to “The Fire Still Burns” by Twisted Sister but 
find any that did most of the song. So I made my own by ear from a video of Eddie playing. 
are probably some mistakes, but I think I got most of it.

Key:

Let chord ring= ~
Palm mute= . . . . etc.
Hammer on= h

Intro 1eb|------------|------------|------------|------------|Bb|------------|------------|------------|------------|Gb|------------|------------|------------|------------|Db|------------|---5--------|------------|--5---------|Ab|---5-777----|-----777----|---5-777----|----777-----|Eb|------------|------------|------------|------------|
|------------|------------||------------|------------||--5~----7~--|----5-4-5---||--5~----7~--|----5-4-5---||--5~----7~--|----5-4-5---||--3~----5~--|----3-2-3---| . . .
|------------|------------|------------|------------||------------|------------|------------|------------||------------|------------|------------|------------||------------|---5--------|------------|--5---------||---5-777----|-----777----|---5-777----|----777-----||------------|------------|------------|------------|
|------------|------------||------------|------------||--5~----7~--|----5-4-5---||--5~----7~--|----5-4-5---||--5~----7~--|----5-4-5---||--3~----5~--|----3-2-3---| . . .
Intro 2|------------|------------|------------|------------||------------|------------|------------|------------||------------|------------|------------|------------||------------|---5--------|------------|--5---------||---5-777----|-----777----|---5-777----|----777-----||------------|------------|------------|------------|
|------------|------------||------------|------------||--5~----5~--|--4--5-5-5--||--5~----5~--|--4--5-5-5--||--3~----5~--|--4--5-5-5--||--------3~--|--2--3-3-3--| . . .
|------------|------------|------------|------------||------------|------------|------------|------------||------------|------------|------------|------------||------------|---5--------|------------|--5---------||---5-777----|-----777----|---5-777----|----777-----||------------|------------|------------|------------|
|------------|------------||------------|------------||--5~----5~--|--4--5-5-5--||--5~----5~--|--4--5-5-5--||--3~----5~--|--4--5-5-5--||--------3~--|--2--3-3-3--| . . .
Verse|------------|------------|------------|------------||------------|------------|------------|------------||------------|------------|------------|------------||------------|---5--------|------------|--5---------||---5-777----|-----777----|---5-777----|----777-----||------------|------------|------------|------------|
|------------|------------||------------|------------||--5~----7~--|----5-4-5---||--5~----7~--|----5-4-5---||--5~----7~--|----5-4-5---||--3~----5~--|----3-2-3---| . . .
|------------|------------|------------|------------||------------|------------|------------|------------||------------|------------|------------|------------||------------|---5--------|------------|--5---------||---5-777----|-----777----|---5-777----|----777-----||------------|------------|------------|------------|
|------------|------------|------------|------------||------------|------------|------------|------------||-4--2-------|-5~3h4h5-5~-|------------|---------5~-||-4--2-----4-|-5~------5~-|-----2-2-2--|-5-4-5---5~-||-2--0--2--4-|-3~------3~-|-----2-2-2--|-5-4-5---3~-||-------3--2-|------------|-----0-3-0--|-3-2-3------| . . .
|------------|------------|------------||------------|------------|------------||---------5--|--4~-4~-4~--|------------||---------5--|--4~-4~-4~--|--5-5-5-----||-0-0h2-2-3--|--2~-2~-2~--|--5-5-5-----||------------|------------|--3-3-3-----|
Tap to rate this tab
 
# A B C D E F G H I J K L M N O P Q R S T U V W X Y Z