Tyler Hilton – Meant Something To Me tab

Yes i know its not rlly like tyler plays it but i think it sounds pretty good and its a 
good base to start with. send me a message if u want me to make a video of how i play 
it. I did this on ear so dont have chords. Hope you guys enjoy. My Data is below :)

---0---0---0--0--0--0---0-0--0--0-----0---2---|---0---0---0--0--0--0---0-0--0--0-----0---0---|----------------------------------------------|----------------------------------------------| x2----------------------------------------------|0----0----2--2--4--4--5---5--4--2--0-0--0-2---|
---0---0---0--0--0--0---0-0--0--0-----0---2-|---0---0---0--0--0--0---0-0--0--0-----0---0-|--------------------------------------------|--------------------------------------------|--------------------------------------------|0----0----2--2--4--4--5---5--4--2--0-0--0-2-|
---0---0---0--0--0--0---0-0--0--0-----0---0-|---0---0---0--0--0--0---0-0--0--0-----0---3-|--------------------------------------------|--------------------------------------------|--------------------------------------------|0----0----2--2--4--4--5---5--4--2--0-0--0-0-|
----------------------|--2---2----0--0-3-----|--2---2----1--1-1-----|----------------------| x30---0---0-------------|----------0--0-0--0---|
-------2-|-2--2--0-|-3--2----|---------|----0--2-|-2-------|
---0---0---0--0--0--0---0-0--0--0-----0---2-|---0---0---0--0--0--0---0-0--0--0-----0---0-|--------------------------------------------|--------------------------------------------| x1 then interlude--------------------------------------------|0----0----2--2--4--4--5---5--4--2--0-0--0-2-|
----------------------|--2---2----0--0-3-----|--2---2----1--1-1-----|----------------------| x30---0---0-------------|----------0--0-0--0---|
-------2-|-2--2--0-|-3--2----|---------|----0--2-|-2-------|
---0---0---0--0--0--0---0-0--0--0-----0---2---|---0---0---0--0--0--0---0-0--0--0-----0---0---|----------------------------------------------|----------------------------------------------| x2----------------------------------------------|0----0----2--2--4--4--5---5--4--2--0-0--0-2---|
Name : Menno Kouwenberg From : Netherlands Email: Merronmusic@gmail.com Youtube: http://www.youtube.com/channel/UC3np8EZHUCQx_cK0mPPfaww?feature=mhee
Please rate this tab:
x1.0