Type O Negative - Everything Dies tab

Person: Jon Allen

song: Everything Dies

artist: Type O Negative

tab: ******************************************************
**          Tabbed by Raza Mahmood                  **
******************************************************
/--------------------------------------------------------
/ The following is the author's own interpertation of -/ the song, to be used for studying or private use only -/--------------------------------------------------------Type-O tuning from low to high (B,E,A,D,F#,B)
(harm) (+=full step bend) (2times)||-----||-----------------------------||||-----||-----------------------------||||-----||-----------------------------||||-----||----*4*----------------------||||-----||--------2-4----X--X-X--X-X-X-||||-12\-||-4----------2+-X--X-X--X-X-X-||
(with drums n' bass) (2times)||-----------------------------||||-----------------------------||||-----------------------------||||----*4*----------------------||||--------2-4----X--X-X--X-X-X-||||-4----------2+-X--X-X--X-X-X-||
||-----------------------------------|||-----------------------------------|||-----------------------------------|||-----------------/14--14--14-16-13-|||-11-11-11\---\9--/12--12--12-14-11-|||--9--9--9\(8)\7--------------------|
|--------------------------------------||--------------------------------------||--------------------------------------||-----------------/14-14-14\-----13\11-||-11-11-11\---\9--/12-12-12\(11)-11\-9-||--9--9--9\(8)\7-----------------------|
||-----------------------------------|||-----------------------------------|||-----------------------------------|||-----------------/14--14--14-16-13-|||-11-11-11\---\9--/12--12--12-14-11-|||--9--9--9\(8)\7--------------------|
pm...........| (p.harm)|------------------------------------|||------------------------------------|||------------------------------------|||-9-8-9-8-9-8-11-11-11-11-11-11------|||-7-6-7-6-7-6--9--9--9--9--9--9--*7*-|||------------------------------------||
||-----------------------------------|---------------------------------||||-----------------------------------|---------------------------------||||-----------------------------------|---------------------------------||||-----------------------------------|---------------------------------||||-11-11-11\---\9--\7--7-7--7--9-6---|-11-11-11\---\9--\7--7-7--7\6\4--||||--9--9--9\(8)\7--\5--5-5--5--7-4---|--9--9--9\(8)\7--\5--5-5--5\4\2--||
||-----------------------------------|||-----------------------------------|||-----------------------------------|||-----------------------------------|||-11-11-11\---\9--\7--7-7--7--9-6---|||--9--9--9\(8)\7--\5--5-5--5--7-4---|
pm...........| (p.harm)|------------------------------------|||------------------------------------|||------------------------------------|||-9-8-9-8-9-8-11-11-11-11-11-11------|||-7-6-7-6-7-6--9--9--9--9--9--9--*7*-|||------------------------------------||
VERSE: (piano/bass for guitar)"Well, I love my aunt..."||---------------------------------||||---------------------------------||||---------------------------------||||---------------------------------||||-2-----4-----0---------------2^4-||||--------------------0--2--4------||
CHORUS:"Everything Dies..." ||--------|-------------------------||----||||--------|-------------------------||----||||--------|-9--9^8-9--9^8-9^8-----8-||----||||-9--X\--|-------------------9-9---||-X\-||||-7--X\--|-------------------------||-X\-||||--------|-------------------------||----||
Repeat Verse/Chorus.
"No, why?" "I really miss you." (4th time only) pm...|||--------------------------||-------------------------------||||--------------------------||-------------------------------||||------------------------9-||-------------------------------||||-11-11----11-11\7--7-9--7-||-11-11---11-11\7-7-7-7-9-9-9-9-||||--9--9--X--9--9\5--5-7----||--9--9--X-9--9\5-5-5-5-7-7-7-7-||||--9--9--------------------||--9--9-------------------------||
KEYBOARD SOLO(Guitar rhythm fig.)||-------------------------||||-------------------------||||-------------------------||||-4-4-6-6-/14-14\-9--9----||||-2-2-4-4-/12-12\-7--7-9\-||||-------------------------||
"No, why?" "I really miss you." (4th time only) pm...|||--------------------------||-------------------------------||||--------------------------||-------------------------------||||------------------------9-||-------------------------------||||-11-11----11-11\7--7-9--7-||-11-11---11-11\7-7-7-7-9-9-9-9-||||--9--9--X--9--9\5--5-7----||--9--9--X-9--9\5-5-5-5-7-7-7-7-||||--9--9--------------------||--9--9-------------------------||
||-----------------------------------|||-----------------------------------|||-----------------------------------|||-----------------/14--14--14-16-13-|||-11-11-11\---\9--/12--12--12-14-11-|||--9--9--9\(8)\7--------------------|
|--------------------------------------||--------------------------------------||--------------------------------------||-----------------/14-14-14\-----13\11-||-11-11-11\---\9--/12-12-12\(11)-11\-9-||--9--9--9\(8)\7-----------------------|
||-----------------------------------|||-----------------------------------|||-----------------------------------|||-----------------/14--14--14-16-13-|||-11-11-11\---\9--/12--12--12-14-11-|||--9--9--9\(8)\7--------------------|
pm...........| (p.harm)|------------------------------------|||------------------------------------|||------------------------------------|||-9-8-9-8-9-8-11-11-11-11-11-11------|||-7-6-7-6-7-6--9--9--9--9--9--9--*7*-|||------------------------------------||
Repeat Chorus/Keyboard Solo
OUTRO:(clean guitar w/ chorus, delay)||-----------------||||-----------------||||-------6---6---6-||||-4-5-4---0---0---||||-----------------||||-----------------||
(Distortion kicks in) (4 times)||--------------------------------|---------------------------||||--------------------------------|---------------------------||||--------------------------------|-----------------------2-4-||||--------------------------------|---------------------2-----||||--------------------------------|-------5---5-4-----4-------||||-2---2/10---10--9---0-4/5\4-(0)-|-2---2-----------2---------||
(half-step pull offs)||-----------------------||||-----------------------||||-13/\/\/\/\/\(14)...---||||-----------------------||||-----------------------||||-----------------------||
Tap to rate this tab
 
# A B C D E F G H I J K L M N O P Q R S T U V W X Y Z