U2 - The Fly tab

Someone better rate this....

Use a Wah

THE FLY LIVE


e--------------------|b--------------------|g-8-8-8-8-8-8-8-8-6--|d-8-6-6-6-6-6-6-6-6--| x4a-6-6-6-6-6-6-6-6-4--|e--------------------|
Its no secret that the stars are falling from the sky
----------|--11-vv---|--11-vv---|--11-vv---|--9--vv---|----------|
Its no secret that our world is in darkness tonight
----------|----------|
-11/13/11-|-11/13/11-|----------|----------|
They say the sun is sometimes Eclipsed by the moon I didn't see you, when she walked in the room
---------------------------------------------|---------------------------------------------|---------------------------------------------|-11-11-11-11-11-11-11-11-8-8-8-8-8-8-8-8-8-8-|-9--9--9--9--9--9--9--9--6-6-6-6-6-6-6-6-6-6-|---------------------------------------------|
For the next part of the verse and the second verse, keep repeating this:
e--------------------|b--------------------|g-8-8-8-8-8-8-8-8-6--|d-6-6-6-6-6-6-6-6-6--| a-6-6-6-6-6-6-6-6-4--|e--------------------|
Chorus Cm Eb G# Love, we shine like a burning star Cm Eb Falling from the sky G# Tonight Its no secret at all
---------------------|------------------11-|------------------11-| play again-------2----------11-|-------2----------9--|---------------------|
Pre Solo:
---------------------------|-10-vv--10-vv--10-vv-10-vv-|-10-vv--10-vv--10-vv-10-vv-|-10-vv--10-vv--10-vv-10-vv-|-8--vv--8--vv--8--vv-8--vv—|---------------------------|
Solo-15--14------12--15--14------12---------15--14------12------|---------15--------------15-----15--12----------15----------|------------------------------------------------------------|------------------------------------------------------------|------------------------------------------------------------|------------------------------------------------------------|
-15--14-----------------------------------------------------|---------15-15-15-15-14-14-12-12-10-10-8-8-7-7-5-5-3-3-5----|------------------------------------------------------------|------------------------------------------------------------|------------------------------------------------------------|------------------------------------------------------------|
----------------------------------------------12------------|-10--9--7---------10--9--7--12-12-12-12^(14)------12^(14)---|-----------9-9-4--------------------------------------------|------------------------------------------------------------|------------------------------------------------------------|------------------------------------------------------------|
-12---------------------------------------------------------|-----12^(14)-12-12-10-10-9-9-10-9-7-----7--9--7--5--9--7--5-|------------------------------------9-9---------------------|------------------------------------------------------------|------------------------------------------------------------|------------------------------------------------------------|
------------------------------------------------------------| -9--7--5--7-7-9-9-10-10-12-12-14-14-16-16-17-17-19----------|------------------------------------------------------------|------------------------------------------------------------|------------------------------------------------------------|------------------------------------------------------------|
Endinge----------------------|b-------15-------------|g-13/14----11-12-11----|d----------------------| x8 a----------------------|e----------------------|
When the chorus stops, play the main riff/verse again:
e-14-14-14-14-16--14--16---------------------------------|b-------------------------14-14-14-14-16--14--16---------| x2g--------------------------------------------------------|d--------------------------------------------------------|a--------------------------------------------------------|e--------------------------------------------------------|
e-14-14-14-14-16--16--14-13-9-11--6-9-11---6--9—11^(13)--11--9--6—4h6p4-|b-----------------------------------------------------------------------|g-----------------------------------------------------------------------|d-----------------------------------------------------------------------|a-----------------------------------------------------------------------|e-----------------------------------------------------------------------|
e---------|b---------|g---------|d-8-------|a-6-------|e---------|
GOOD LUCK!
Tap to rate this tab
 
# A B C D E F G H I J K L M N O P Q R S T U V W X Y Z