U2 - Yahweh tab

YahwehHeres is a tab from u2, is a great songif you find something wrong let me know (kosorno@hotmail.com)enjoy!!!Intro --------------------|--------------------|--------------------|-------0------------|--------------------|--------------------|
(this is opcional)--0--0--0--0--|--0----0----|--1--1-/3--5--|--6----5----|--0-----------|------------|--2-----------|------------|--3-----------|------------|--------------|------------|
------8----8-----------8----8-----|-----8---8----------10----10--10--|--7-----7----7/9-—-7-----7----7/9-|--7----7----7-9---9------9---9----|--------0-------------------------|----------------------------------|----------------------------------|----------------------------------|----------------------------------|----------------------------------|----------------------------------|----------------------------------|
Verse
----------------------------------------|----------------------------------------|--5-5-5-5-5-5-5-5-5--5-5--5-5-5-5/7-7\5-| x4----------------------------------------|--3-3-3-3-3-3-3-3-3--3-3--3-3-3-3/5-5\3-|----------------------------------------|
-----------------------------------------|-----3--5--6--5------3--5--6--5----------|--5---------------5----------------------| x2-----------------------------------------|-----------------------------------------|-----------------------------------------|
----------------------------------------|----------------------------------------|--5-5-5-5-5-5-5-5-5--5-5--5-5-5-5/7-7\5-| x2----------------------------------------|--3-3-3-3-3-3-3-3-3--3-3--3-3-3-3/5-5\3-|----------------------------------------|
-----------------------------------------|-----3--5--6--5------3--5--6--5----------|--5---------------5----------------------|-----------------------------------------|-----------------------------------------|-----------------------------------------|
Chorus|---8-----|---------||---8-----|---------|---8-----|-----------------||-----8---|-10--8---||-8---8---|--10--8--|-----8---|-10-8--10-8-10-8-||-9-----9-|-------9-||-------9-|---------|-9-----9-|-----------------||---------|---------||---------|---------|---------|-----------------||---------|---------||---------|---------|---------|-----------------|
----------------------------------------|----------------------------------------|--5-5-5-5-5-5-5-5-5--5-5--5-5-5-5/7-7\5-| x4----------------------------------------|--3-3-3-3-3-3-3-3-3--3-3--3-3-3-3/5-5\3-|----------------------------------------|
-----------------------------------------|-----3--5--6--5------3--5--6--5----------|--5---------------5----------------------| x2-----------------------------------------|-----------------------------------------|-----------------------------------------|
Chorus 2|---8-----|---------||---8-----|---------|---8-----|--------||-----8---|-10--8---||-8---8---|--10--8--|-----8---|-10-8---||-9-----9-|-------9-||-------9-|---------|-9-----9-|--------||---------|---------||---------|---------|---------|--------||---------|---------||---------|---------|---------|--------|
|------8-----|-----------------||--------8---|-10-8--10-8-10-8-||----9-----9-|-----------------||------------|-----------------||------------|-----------------|
|---8-----|---------||---8-----|---------|---8-----|--------||-----8---|-10--8---||-8---8---|--10--8--|-----8---|-10-8---||-9-----9-|-------9-||-------9-|---------|-9-----9-|--------||---------|---------||---------|---------|---------|--------||---------|---------||---------|---------|---------|--------|
Verse 2"still waiting for the dawn...|-*12*---------|---------|---------|---------||----------*12*|-(12)----|---------|---------||--------------|---------|-*12*----|-(12)----||--------------|---------|---------|---------||--------------|---------|---------|---------||--------------|---------|---------|---------|
|-*12*---------|-----------|---------|---------||----------*12*|-(12)------|---------|---------||--------------|----*12*---|---------|---------||--------------|-----------|--*12*---|---------||--------------|-----------|---------|--*12*---||--------------|-----------|---------|---------|
"sun is coming...."|--0----0-------0----0----0----0----0----|--------------------------------------||----5----5---5----5----5----5----5----6-|-8---8-10---8-12---12/13-13-13--13-15-||----------------------------------------|--------------------------------------||----------------------------------------|--------------------------------------||----------------------------------------|--------------------------------------||----------------------------------------|--------------------------------------|
"Love is like a drop in the ocean"|--0-------0-----0-----0-|-12-13-12-13-12-13-12-13-|12-13-12-13-12-13-12----||----15------15----15----|-------------------------|------------------------||------------------------|-------------------------|------------------------||------------------------|-------------------------|------------------------||------------------------|-------------------------|------------------------||------------------------|-------------------------|------------------------|
Chorus 2|---8-----|---------||---8-----|---------|---8-----|--------||-----8---|-10--8---||-8---8---|--10--8--|-----8---|-10-8---||-9-----9-|-------9-||-------9-|---------|-9-----9-|--------||---------|---------||---------|---------|---------|--------||---------|---------||---------|---------|---------|--------|
|------8-----|-----------------||--------8---|-10-8--10-8-10-8-||----9-----9-|-----------------||------------|-----------------||------------|-----------------|
|---8-----|---------||---8-----|---------|---8-----|--------||-----8---|-10--8---||-8---8---|--10--8--|-----8---|-10-8---||-9-----9-|-------9-||-------9-|---------|-9-----9-|--------||---------|---------||---------|---------|---------|--------||---------|---------||---------|---------|---------|--------|
----------------------------------------|----------------------------------------|--5-5-5-5-5-5-5-5-5--5-5--5-5-5-5/7-7\5-| x4----------------------------------------|--3-3-3-3-3-3-3-3-3--3-3--3-3-3-3/5-5\3-|----------------------------------------|
|-----------------------------------------------------------------------||------8----8------------8----8------------8----8-----------8-----8-8-8-||--7-----7----7-9----7-----7----7-9----7-----7----7-7----9----9---9-9-9-||-----------------------------------------------------------------------||-----------------------------------------------------------------------||-----------------------------------------------------------------------|
the ending “What no man can own, no man can take...”|-----------| |----8------8------8-|--8-----8-----8-||------8----| |------8------8------|----8-----8-----||--10----10-| |-10-----10-----10---|9-----9-----9---| |-----------| |--------------------|----------------||-----------| |--------------------|----------------||-----------| |--------------------|----------------|
x3 this part the end|--(8)---||--(8)---||--(9)---||--------||--------||--------|
Tap to rate this tab
 
# A B C D E F G H I J K L M N O P Q R S T U V W X Y Z