Uh Huh Her – Not A Love Song tab

#----------------------------------PLEASE NOTE--------------------------------#
#This file is the author's own work and represents their interpretation of the#
#song. You may only use this file for private study, scholarship, or research.#
#-----------------------------------------------------------------------------#
#-- File created with Instab - http://www.pconline.com/~smcarey/instab.html --#
#-----------------------------------------------------------------------------#

Author/Artist: Uh Huh Her
Title: Not A Love Song
Album: Common Reaction
Transcribed by: Kelly --> PERU (L)’S UHH!
Email: kelly-cp@hotmail.com

Intro: 0:00--------------------------------------------------|--------------------------------------------------|--------------------------------------------------|-----3-----3-----3-----3-----2-----2-----0-----0--|--------------------------------------------------|-3-3---3-3---3-3---3-3---3-3---3-3---3-3---3-3----|
Verse: 0:08 The city's dead by morning…
-3-3-3-3-3-3-----------0-1-3-1-0----------3-3-3-3-3-3---------0-1-3-1-0---|-------------3-----3-------------3--------------------3-----3-----------3-|--------------------------------------------------------------------------|--------------------------------------------------------------------------|--------------------------------------------------------------------------|--------------------------------------------------------------------------|
0:23 How much are you likin'…
-----------0-------0-1-3-1-0-1------------------1-0---------1-------|-0-0-0/1-3-------3-------------3----3/1-0-0-0-1-----3-3-3-3---3-1/0-|--------------------------------------------------------------------|--------------------------------------------------------------------|--------------------------------------------------------------------|--------------------------------------------------------------------|
Chorus:0:38 I'll sing you a love…
-3-3-8-6-5-3-8-6-5-3-6-3-------3-5-6-8-6-5-3--8-6-5-3-6-3----|-----------------------------------------------------------3-|-------------------------------------------------------------|-------------------------------------------------------------|-------------------------------------------------------------|-------------------------------------------------------------|
0:51 Oh I want to fall away…
-3-3-5-6-3-5-5/6-5-1-1-1-6-3-------3-5-6-8-6-5-3-8-6-5-3-3-----|------------------------------------------------------------3--|---------------------------------------------------------------|---------------------------------------------------------------|---------------------------------------------------------------|---------------------------------------------------------------|
Intro: 1:07
-------------------------------------------------|-------------------------------------------------|-------------------------------------------------|-----3-----3-----3-----3-----2-----2-----0-----0-|-------------------------------------------------|-3-3---3-3---3-3---3-3---3-3---3-3---3-3---3-3---|
Verse 2: 1:14 I still disappoint you…
-3-3-3-3-3-3-------0-1-3-1-0-1-----3-3-3-3-3-----0-1-----1-1-1-0---|-------------3-3-3-------------3-------------3-3-----1-1---------1-|-------------------------------------------------------------------|-------------------------------------------------------------------|-------------------------------------------------------------------|-------------------------------------------------------------------|
1:29 You may waste no time dear…
--------------------1-1-3---3-7-8-7-5-3-3-3-3-3-7-3-1--|-0-0-0/1--3-5/3-3-5------------------------------------|-------------------------------------------------------|-------------------------------------------------------|-------------------------------------------------------|-------------------------------------------------------|
Chorus: 1:14 I'll sing you a love…
-3-3-8-6-5-3-8-6-5-3-6-3---3-5-6-8-6-5-3---8-6-5-3-6-3---|-------------------------------------------------------3-|---------------------------------------------------------|---------------------------------------------------------|---------------------------------------------------------|---------------------------------------------------------|
1:58 Oh I want to fall away…
-3-3-5-6-3-5--5/6--5-1-1-1-6-3----3-5-6-8-6-5-3-8-6-5-3---|--------------------------------------------------------3-|----------------------------------------------------------|----------------------------------------------------------|----------------------------------------------------------|----------------------------------------------------------|
Intro: 2:14
-------------------------------------------------|-------------------------------------------------|-------------------------------------------------|-----3-----3-----3-----3-----2-----2-----0-----0-|-------------------------------------------------|-3-3---3-3---3-3---3-3---3-3---3-3---3-3---3-3---|
-------------------------------------------------|-------------------------------------------------|-------------------------------------------------|-----3-----3-----3-----3-----2-----2-----0-----0-|-------------------------------------------------|-3-3---3-3---3-3---3-3---3-3---3-3---3-3---3-3---|
2:28 But if you can't say love anyway…
-3-3-5-9-9-9-5-3-3-3-5-7----3-5-6-8-6-5-3-8-6-5-3-3---|----------------------------------------------------3-|------------------------------------------------------|------------------------------------------------------|------------------------------------------------------|------------------------------------------------------|
2:41 Oh I want to fall away…
-3-3-5-6-3-5/6-5-1-1-1-6-3---3-5-6-8-6-5-3-8-6-5-3-3---|-----------------------------------------------------3-|-------------------------------------------------------|-------------------------------------------------------|-------------------------------------------------------|-------------------------------------------------------|
Please rate this tab:
x1.0