Unanimated – Dying Emotions Domain tab

UNANIMATED
DYING EMOTIONS DOMAIN
ALBUM: ANCIENT GOD OF EVIL
Tabbed by: Martijn Wietsma

Intro:

|----------------------------|-----------------------------||----------------------------|-----------------------------||----------------------------|-----------------------------||----------------------------|-----------------------------||----------------------------|-----------------------------||-5-5-5-7-7-7-8-8-8-7-7-7----|-12-12-12-11-11-11-10-10-10--|
|-------------||-------------||-------------||-------------||-------------||-9-9-9-------| repeat this 5x
part (1)
|----------------------------|-----------------------------||----------------------------|-----------------------------||-0-2-3----------------------|-0-2-3-----------------------||---------3-2-3/5------------|---------2h3p2---------------||-------------------7-7-5-5-4|-----------------------------||-------------------5-5-3-3-2|-----------------------------| p.m.................. repeat 6x
part (2)
|----------------------------|-----------------------------||----------------------------|-----------------------------||----------------------------|-----------------------------||----------------------------|-----------5h6p5~------------||-7-6-5---4-4-4-4------------|-7-6-5-----------------------||-5-4-3---2-2-2-2------------|-5-4-3-----------------------|repeat this 4x
repeat part (1) 4x repeat part (2) 2x part (3)
|----------------------------|-----------------------------||----------------------------|-----------------------------||----------------------------|-----------------------------||----------------------------|-----------------------------||-5-------5-5--------5-------|--5-5/7~---------------------||---0-0-0-----0-0-0----0-0-0-|-----------------------------| pm......... pm......... pm.........
part (4)
|----------------------------|-----------------------------||----------------------------|-----------------------------||----5-----------------------|----5------------------------||-2-----3-2-3-5-3-2----------|-2-----3-2-0-2-3-2-----------||----------------------------|-----------------------------||----------------------------|-----------------------------|repeat this 4x
Part (5) Solo:
|----------------------------|-----------------------------||----------------------------|-----------------------------||-15h17h18p17p15h17~-19~-----|-18p17---15-17-18-17-15-13---||----------------------------|-----------------------------||----------------------------|-----------------------------||----------------------------|-----------------------------|
|----------------------------|-----------------------------||-17-20-19-15~---------------|---------------------------21||--------------19p17h19p17h19|p17-13-15-17p15h17p15---17---||----------------------------|-----------------------------||----------------------------|-----------------------------||----------------------------|-----------------------------|
repeat part (3) 2x repeat part (1) 3x Part (6)
|-------------||-------------||-------------||-------------||----7--------||----5--------|
Part (7) Bass-riff
|----------------------------||-5-4-2---5-4-2---5-4-2------||----------------------------||----------------------------|
Part (8)
|----------------------------|-----------------------------||----------------------------|-----------------------------||----------------------------|-----------------------------||-------------------5~-------|-----------------------------||-7-7-7-7---7-6-5------------|-7-6-5-4-4-4-4---7-6-5---8---||-5-5-5-5---5-4-3------------|-5-4-3-2-2-2-2---5-4-3---6---| p.m............... p.m............
repeat part (4) 8x h = hammer p = pick / = slide ~ = pull string up p.m. = palm mute
Please rate this tab:
x1.0