Uncle Acid And The Deadbeats – Do What Your Love Tells You tab ver. 2

Tabbed by Five

==========================================================
Uncle Acid And The Deadbeats - Do What Your Love Tells You
==========================================================

I have already tabbed this in C# (C#F#BEG#C#), but it seems that
D-Tuning is correct (DGCFAC) (Thanks to User "Jesticles").
So here it is, transcribed into D-Tuning.


# Intro-Slide:C|----------|A|----------|F|----------|C|----------|G|----------|D|--0--12\--|
# Riff 1.1:|--------------------------|-----------------------------||--------------------------|-----------------------------||--------------------------|-----------------------------||--------------------------|-----------------------------||--------5--7~-------7-----|--7b--7--5--7~------------5--||--0--0-----------0-----0--|------------------5--5h-7----| p p p p
|--------------------------|-------------------------------||--------------------------|-------------------------------||--------------------------|-------------------------------||--------------------------|-------------------------------||--------5--7~-------7-----|--7b--7--/5--/5~------------5--||--0--0-----------0-----0--|--------------------5--5h-7----| p p p p
# Riff 1.2:|--------------------------|-----------------------------||--------------------------|-----------------------------||--------------------------|-----------------------------||--------------------------|-----------------------------||--------5--7~-------7-----|--7b--7--5--7~------------5--||--0--0-----------0-----0--|------------------5--5h-7----| p p p p
|--------------------------|-----------------------||--------------------------|-----------------------||--------------------------|-----------------------||--------------------------|-----------------------||--------5--7~-------5--3--|-----5-----------------||--0--0-----------0--------|--0-----3b----3--2~----| p p p p
# Riff 2:|-----------------------------------|-------------------------||-----------------------------------|-------------------------||-----------------------------------|-------------------------||--------14/-16-14-------12/-14-12--|-----7---9---------------||--------12/-14-12-------10/-12-10--|-----5---7----5--5h-7-7--||--0--0---------------0-------------|--0----------------------| p p p p
|-----------------------------------|------------------------------||-----------------------------------|------------------------------||-----------------------------------|------------------------------||--------14/-16-14-------12/-14-12--|-----7---9--------------------||--------12/-14-12-------10/-12-10--|-----5---7----5h-7-7--5h-7-7--||--0--0---------------0-------------|--0---------------------------| p p p p
|-----------------------------------|-------------------------||-----------------------------------|-------------------------||-----------------------------------|-------------------------||--------14/-16-14-------12/-14-12--|-----7---9---------------||--------12/-14-12-------10/-12-10--|-----5---7----5--5h-7-7--||--0--0---------------0-------------|--0----------------------| p p p p
|-----------------------------------|--------------------------||-----------------------------------|--------------------------||-----------------------------------|--------------------------||--------14/-16-14-------12/-14-12--|--------------------------||--------12/-14-12-------10/-12-10--|-----5h-7-5b----5------5--||--0--0---------------0-------------|--0---------------5h-7----| p p p p
# Riff 1.1 x 2 # Riff 2 x 1 # Riff 1.1 x 2 # Riff 2 x 1
# Interlude:|----------------|-------------------|-------------||----------------|-------------------|-------------||----------------|-------------------|-------------||--2-----2--2----|--3-------3/---7~--|-------------||--2-----2--2----|--3-------3/---7~--|-------------||--0-----0--0----|--1-------1/---5~--|--5br---5br--|
# "Solo-Riff"-Section:# Solo-Riff 1:|-------------------------------------------------------------------||-------------------------------------------------------------------||-------------------------------------------------------------------||-------------------------------------------------------------------||-------------------------------------------------------------------||--3-5--5---3-5--5---3-5--5---3-5--3-0--3---5--5---3-5--5---3-5--5--|
|-------------------||-------------------||-------------------||---------5---------||----5h-7---7p-5----||--3-------------7--|
# Solo-Riff 2 x 3 (Same as Solo-Riff 1, just leave out the first note [3]):|-----------------------------------------------------------------||-----------------------------------------------------------------||-----------------------------------------------------------------||-----------------------------------------------------------------||-----------------------------------------------------------------||--5--5---3-5--5---3-5--5---3-5--3-0--3---5--5---3-5--5---3-5--5--|
|-------------------||-------------------||-------------------||---------5---------||----5h-7---7p-5----||--3-------------7--|
# Solo-Riff 3:|---------------------------------------------------------------------||---------------------------------------------------------------------||---------------------------------------------------------------------||---------------------------------------------------------------------||---------------------------------------------------------------------||--5h-7-7-7---5-7--7---5-7--7---5-7--5-2--5---7--7---5-7--7---5-7--7--|
|----------------------------||----------------------------||----------------------------||-------7-9-7---7------------||--7h-9-------9---9-7-9-7----||-------------------------9--|
# Solo-Riff 4 (Like Solo-Riff 1, but a different start and ending):|-----------------------------------------------------------------||-----------------------------------------------------------------||-----------------------------------------------------------------||-----------------------------------------------------------------||-----------------------------------------------------------------||--7--7---5-7--7---5-7--7---5-7--5-2--5---7--7---5-7--7---5-7--7--|
|----------------------------||----------------------------||----------------------------||--9p-7---7------------------||-------9---9-7-9-7---7------||-------------------9---9-7--|
# Interlude # Riff 1.2 # Riff 1.1 x 2 # Riff 2 x 1 # Interlude
# Outro# This is not right, I know...I'm going to do this better later.# Nontheless, this Song is also without the Outro awesome.|--------------------------||--------------------------||--------------------------||----------5h--7--5-----5--||-----5--------------7-----||--5-----------------------| Let the 5 ring
|-------------------------------------------------||-------------------------------------------------||-------------------------------------------------||--7-----5----9-----9----10----10----14----14-----||-----7----------7-----------8----------12--------||--5----------7-----------8----------12-----------|
Have fun, Five :] Legend ====== \ ... Slide down / ... Slide up h ... Hammer-On ~ ... Vibrato p ... Palm-Mute b ... Bend r ... Release br ... Bend and Release
Please rate this tab:
x1.0