Uncommonmenfrommars – You Lie tab

Uncommonmenfrommars
Album : Noise Pollution
You Lie

EADGBE

-------------------------------------------------|-------------------------------------------------|------------------------------------------5--4---|-2------------------------5--2----5--7----5--4---|-2------------------------5--2----5--7----3--2---|-0------------------------3--0----3--5-----------|
---------------------------------|---------------------------------|-9999999999999999---------7------|-9999999999999999--10--7--7--8---|-7777777777777777--10--7--5--8---|-------------------8---5-----6---|
------------------------------------------------|------------------------------------------------|------------------------------------5555/7777---|-22222222-1010101010101010-77777777-5555/7777---|-22222222-1010101010101010-77777777-3333/5555---|-00000000--8-8-8-8-8-8-8-8-55555555-------------|
------------------------------------------------------------|---------------------555555555555555555555555555555555555---|------------------------------------------------------------|-2----------------------------------------------------------|-2----------------------------------------------------------|-0----------------------------------------------------------|
Dernier refrain
--------------------------------------------------------|--------------------------------------------------------|------------------------------------\-1212121212121212--| X4-22222222-1010101010101010-77777777-\-1212121212121212--|-22222222-1010101010101010-77777777-\-1010101010101010--|-00000000--8-8-8-8-8-8-8-8-55555555---------------------|
Fin guitare 1
------------------------------------|------------------------------------|-99999999999999999999999999999999---| X2-99999999999999999999999999999999---|-77777777777777777777777777777777---|------------------------------------|
-------------------------------------|-------------------------------------|-9999999999999999--------------------| X3-9999999999999999-7777777777777777---|-7777777777777777-7777777777777777---|------------------5555555566666666---|
Guitare 1
-------------333---------------3-3-------|-555533332222333--55553333-2-2-3-3---5---|-444422222222-----44442222-2-2-------4---|-----------------------------------------|-----------------------------------------|-----------------------------------------|
Guitare 2
-----------------------------------|-----------------------------------|-9999999999999999-------------9\---|-9999999999999999-77-77-88-88-9\---|-7777777777777777-77-77-88-88-7\---|------------------55-55-66-66------|
Please rate this tab:
x1.0