Underoath – My Deteriorating Incline tab

Song: My Deteriorating Incline
Band: Underoath
Album: O (Disambiguation)
Tuning: Drop D

Intro/Verse 0:01-0:16|------------------------------------------------------||------------------------------------------------------||------------------------------------------------------||---8-7--4-4-8-7--4-4-4-4-8-7--0-3-0-------------------| x4|---8-7--4-4-8-7--4-4-4-4-8-7--0-3-0-------------------||---8-7--4-4-8-7--4-4-4-4-8-7--0-3-0-------------------|
0:16-0:28|------------------------------------------------------||------------5----3--------------5----3----------------||------------8----6--------------8----6----------------||---0-------------------0------------------------------| x2|---0-------------------0------------------------------||---0-------------------0------------------------------|
0:28-0:40|------------------------------------------------------||------------------------------------------------------||------------------------------------------------------||---8-7--4-4-8-7--4-4-4-4-8-7--4-4-8-7--4-4------------| x2|---8-7--4-4-8-7--4-4-4-4-8-7--4-4-8-7--4-4------------||---8-7--4-4-8-7--4-4-4-4-8-7--4-4-8-7--4-4------------|
Not totally sure about this part.0:40-0:57|------------------------------------------------------||------------------------------------------------------||------------------------------------------------------||---8--0-3p0-8--0-3p0-8--0-3p0-8--0-3p0----------------||---8--0-3p0-8--0-3p0-8--0-3p0-8--0-3p0----------------||---8--0-3p0-8--0-3p0-8--0-3p0-8--0-3p0----------------|
]x2|------------------------------------------------------||------------------------------------------------------||------------------------------------------------------||---8--0-3p0-8--0-3p0-8--0-3p0-8--1-x-x-x-1-x-x-x------||---8--0-3p0-8--0-3p0-8--0-3p0-8--1-x-x-x-1-x-x-x------||---8--0-3p0-8--0-3p0-8--0-3p0-8--1-x-x-x-1-x-x-x------|
There are open string parts somewhere in these riffs. I'm not sure exactly where they are.0:57-1:06|-----------0--------0---------0--------0--------------||-----------0--------0---------0--------0--------------||------------------------------------------------------||---6-0-9-8---6-9-8----6-0-9-8---6-9-8-----------------| x2|---6-0-9-8---6-9-8----6-0-9-8---6-9-8-----------------||---6-0-9-8---6-9-8----6-0-9-8---6-9-8-----------------|
1:06-1:24|-----------0--------0---------0--------0--------------||-----------0--------0---------0--------0--------------||------------------------------------------------------||---1-0-4-3---1-4-3----1-0-4-3---1-4-3-----------------| x4|---1-0-4-3---1-4-3----1-0-4-3---1-4-3-----------------||---1-0-4-3---1-4-3----1-0-4-3---1-4-3-----------------|
1:36-2:12|------------------------------------------------------||------------------------------------------------------||------------------------------------------------------||--0-------0-3-1-0-8-8-8-8-----------------------------| x6|--0-(x24)-0-3-1-0-8-8-8-8-----------------------------||--0-------0-3-1-0-8-8-8-8-----------------------------|
2:24-2:36|------------------------------------------------------||------------------------------------------------------||------------------------------------------------------||---8-7--4-4-8-7--4-4-4-4-8-7--4-4-8-7--4-4------------| x2|---8-7--4-4-8-7--4-4-4-4-8-7--4-4-8-7--4-4------------||---8-7--4-4-8-7--4-4-4-4-8-7--4-4-8-7--4-4------------|
2:36-2:55|-----------0--------0---------0--------0--------------||-----------0--------0---------0--------0--------------||------------------------------------------------------||---1-0-4-3---1-4-3----1-0-4-3---1-4-3-----------------| x4|---1-0-4-3---1-4-3----1-0-4-3---1-4-3-----------------||---1-0-4-3---1-4-3----1-0-4-3---1-4-3-----------------|
2:55-3:54|------------------------------------------------------||------------------------------------------------------||------------------------------------------------------||--0-------0-3-1-0-8-8-8-8-----------------------------| x6|--0-(x24)-0-3-1-0-8-8-8-8-----------------------------||--0-------0-3-1-0-8-8-8-8-----------------------------|
That's it! Hope u like it!
Please rate this tab:
x1.0