Unleashed - Onward Into Countless Battles tab

B E A D F# B


X 4|------------------------------------------||------------------------------------------||------------------------------------------||-------------------6---------5---------3--||-------------------4---------3---------1--||-0-00-00--0-00-00----0-00-00---0-00-00----| . .. .. . .. .. . .. .. . .. ..
X 3|-----------------------||-----------------------||-----------------------||-----------------------||-----------------------||-0-00-00--0-00-00-3--6-| . .. .. . .. .. .
|------------------------------------------||------------------------------------------||------------------------------------------||------------------------------------------||-------------------------------4-44-44-4--||-0-00-00--0-00-00-3--6-66-66-6------------| . .. .. . .. .. .
X 3|-----------------------||-----------------------||-----------------------||-----------------------||-----------------------||-0-00-00--0-00-00-3--6-| . .. .. . .. .. .
|-----------------------------------||-----------------------------------||-----------------------------------||-----------------------------------||------4-----3-----------7----------||---3-----3-----3--6--3-----6---1---| . . . .
X 4|---------------------------------------||---------------------------------------||---------------------------------------||------------------888888---------------||-------------------------888888777777--||--000000000000000----------------------| ...............
X 8|-----------------------------------------||-----------------------------------------||-----------------------------------------||--9---5-6-----------------5-6------------||--7---3-4-----------7-77--3-4------------||-----------1-1-1-1-------------1-1-1-1---|
|-----------------|------------------------|-----------||-----------------|------------------------|-----------||-----------------|---9-------6----10---9--|-----------||--9--5--6--10-9--|--9---5---6---10----9---|--5-6--10--||--7--3--4--8--7--|-7----3--4---8-----7----|--3-4--8---||-----------------|------------------------|-----------|
|-----------------------------------------||-----------------------------------------||-----------------------------------------||-----------------------------------------||-----------------------------------------||-0-00-00--0-00-00--0-00-00--0-00-00-3--6-| . .. .. . .. .. . .. .. . .. .. .
|------------------------------------------||------------------------------------------||------------------------------------------||------------------------------------------||-------------------------------4-44-44-4--||-0-00-00--0-00-00-3--6-66-66-6------------| . .. .. . .. .. .
|-----------------------||-----------------------||-----------------------||-----------------------||-----------------------||-0-00-00--0-00-00-3--6-| . .. .. . .. .. .
|-----------------------------------||-----------------------------------||-----------------------------------||-----------------------------------||------4-----3-----------7----------||---3-----3-----3--6--3-----6---1---| . . . .
X4|---------------------------------------||---------------------------------------||---------------------------------------||------------------888888---------------||-------------------------888888777777--||--000000000000000----------------------| ...............
X 4|------------------------------------------||------------------------------------------||------------------------------------------||-------------------6---------5---------3--||-------------------4---------3---------1--||-0-00-00--0-00-00----0-00-00---0-00-00----| . .. .. . .. .. . .. .. . .. ..
Tap to rate this tab
 
# A B C D E F G H I J K L M N O P Q R S T U V W X Y Z