Uphill Gardeners - Chocolate Sauce tab

Uphill Gardeners - Chocolate Sauce

by: colorado25

Intro: 

|--3~~------3~~------5~~----6----------------------------||--6~~------3~~------3~~-------------3------------5~~----||--3~~------3~~------3~~-----------------3--------5~~----||--3~~------5~~------3~~--------------------------5~~----||--3~~------3~~------3~~--------------------------3~~----||--------------------------------------------------------|
|--6~~----5--------------3----3~~------------------------||--3~~-----------6------------3~~----------3~~------5~~--||--3~~---------------3--------5~~------5---3~~------5~~--||--3~~------------------------5~~----------3~~------5~~--||--3~~------------------------3~~----------3~~------3~~--||--------------------------------------------------------|
Chorus:
|-6-6-6-6-6-6-6-6-6-6-6-6-6-6-6-6-6-6-6-6-6-6-6-6-6-6-6-6-6-6-6-6||-6-6-6-6-6-6-6-6-6-6-6-6-6-6-6-6-5-5-5-5-5-5-5-5-5-5-5-5-5-5-5-5||-5-5-5-5-5-5-5-5-5-5-5-5-5-5-5-5-5-5-5-5-5-5-5-5-5-5-5-5-5-5-5-5||----------------------------------------------------------------||----------------------------------------------------------------||----------------------------------------------------------------| Repeat X6
Verse:
|--18---x--18------18---x--18------18--x--18------18---x--18---||--18---x--18------18---x--18------17--x--17------17---x--17---||--------------------------------------------------------------||--------------------------------------------------------------||--------------------------------------------------------------||--------------------------------------------------------------| Repeat X8
Bridge:
|----------------------------------------------------------------||-6-6-6-6-6-6-6-6-6-3-3-3-3-3-3-3-3-3-3-3-3-3-3-3-3---3-3-3-3-3-3||-3-3-3-3-3-3-3-3-3-3-5-5-5-5-5-5-5-3-3-3-3-3-3-3-3---3-3-3-3-3-3||-3-3-3-3-3-3-3-3-3-3-3-3-3-3-3-3-3-3-3-3-3-3-3-3-3-5-5-5-5-5-5-5||----------------------------------------------------------------||----------------------------------------------------------------|
Solo:
|---------------------------17^-----17--15----15-----------------||--18^----(18)------18--15-----------------18----18^-------------||-------------------------------------------------------17--17---||----------------------------------------------------------------||----------------------------------------------------------------||----------------------------------------------------------------|
|----------------------------------------------------------------||----------------------------------------------------------------||--15------------------------------------------------------------||-------17--15--17---15--17--------------------------------------||---------------------------15---15--15--------15^------(15)~~~~-||----------------------------------------------------------------|
|----------------------------------------------------------------||----------------------------------------------------------------||----------------------------------------------------------------||----------------------------------------------------------------||--15^~~~--15^~~~--15^~~~--15^~~~--15^~~~--15^~~~--15^~~~--15^~~-||----------------------------------------------------------------|
|----------------------------------------------------------------||----------------------------------------------------------------||----------------------------------------------------------------||----------------------------------------------------------------||--15--13--15^---(16)---15^---15----------15--13^--------13-15-13||---------------------------------15--13-----------13-15---------|
|----------------------------------------------------------------||----------------------------------------------------------------||----------------------------------------------------------------||----------------------------------------------------3--5--3--5--||------------13------13-15-13--------------3--1-1-3--------------||--15--13-15-----15------------15\-1^---3------------------------|
|-----------------------------------------------------------6----||--------------5-----------------6--8^----(8)------6--6--8-------||--3-----3-5^-----3--5--3---5\7----------------------------------||-----5----------------------------------------------------------||----------------------------------------------------------------||----------------------------------------------------------------|
|--8^----(8)--6--8-8^--8--6--8--6---6----------------------------||----------------------------------8--8-6-8-6---6----------------||---------------------------------------------7---7\5-3-5-3--3-3-||-----------------------------------------------------------5----||----------------------------------------------------------------||----------------------------------------------------------------|
|---------------------------3-x----------------------------------||----------------------5-3--3-x-5--x-x-x-x-5--5^--5~-------------||----3-5------------3--5-3------5--x-x-x-x-5--5^--5~-5^--5-3--4~-||--5-------5-3--5-5----------------------------------------------||----------------------------------------------------------------||----------------------------------------------------------------|
|----------------------------------------------------------------||----------------------------------------------------------------||-----------------------------------10---------------------------||--5--3--5--3--5~~~~~~~~~~~---------9----------------------------||-----------------------------------10---------------------------||----------------------------------------------------------------|
Lyrics: -chorus- I like pleasure spiking you and music is my poo it's my chocolate sauce Songbird sweet and sour aim and music is my fame it's my chocolate pleasure spiked with you that motherfucker's always spiking you Looking at my eye, hello I can find the love I want Someone better slap me so I start to enter so I start to thrust Looking at your rear view mirror Looking at your rear view mirror I can make me disapear I can make me disapear, have no fear -repeat chorus- Squatting on your groin I'm turning inside you My analy-seized baby the star of mazy must push his voice inside of me I'm overcoming gravity I'm overcoming gravity It's easy when you're behind me It's easy when you're in me Straddle up me -repeat chorus- Just one note could make me enter could make me enter you One note from the song He wrote could fuck me where I lay Just one thrust could make me choke one trust that's not a lie Just on misplaced thrust could cut my throat one thust could make me die -repeat chorus-
Tap to rate this tab
 
# A B C D E F G H I J K L M N O P Q R S T U V W X Y Z