Anthem tab with lyrics by Urban Dub - Easy chords and tabs for guitar

Urban Dub – Anthem tab

Tuning-
eb
bb
gb
db
ab
Db

d ako xur kung ganun  kaaccurate 2ng tab na i2.. i a-update ko kung me reklamo kayo
               
GtrI -Lead
GtrII-Vox/guitar

Intro-

1.
GtrI

|---------------|-------------------------------------------||---------------|-------------------------------------------||---------------|-77-777-7-7-7-6/7----/99999-7/1212121212---||---------------|------------------0------------------------||---------------|-55-555-5-5-5-4/5-0--/77777-5/1010101010---||---------------|------------------0------------------------|
GtrII
|---------------|------------------------------------------||---------------|------------------------------------------||---------------|------------------------------------------||-----7-----4-7-|-55-555-5-55-55-0-0-0-0-0-0-0-0-0-0-------||-4-5---5-7-----|-55-555-5-55-55-0-0-0-0-0-0-0-0-0-0-------||---------------|-55-555-5-55-55-0-0-0-0-0-0-0-0-0-0-------| * * * * * * *
2.
|---------------|--------------------------------------------||---------------|--------------------------------------------||---------------|-77-777-7-/14-14-11/12---9999-7/1212121212--||---------------|-----------------------0--------------------||---------------|-55-555-5-/12-12-9/10--0-7777-5/1010101010--||---------------|-----------------------0--------------------|
GtrII
|---------------|------------------------------------------||---------------|------------------------------------------||---------------|------------------------------------------||-----7-----4-7-|-55-555-5-55-55-0-0-0-0-0-0-0-0-0-0-------||-4-5---5-7-----|-55-555-5-55-55-0-0-0-0-0-0-0-0-0-0-------||---------------|-55-555-5-55-55-0-0-0-0-0-0-0-0-0-0-------| * * * * * * *3.GtrI
|-------------------------------------------||-------------------------------------------||-77-777-7-7-7-6/7----/99999-7/1212121212---||------------------0------------------------||-55-555-5-5-5-4/5-0--/77777-5/1010101010---||------------------0------------------------|
|--------------------------------------------||--------------------------------------------||-77-777-7-/14-14-11/12---9999-7/1212121212--||-----------------------0--------------------||-55-555-5-/12-12-9/10--0-7777-5/1010101010--||-----------------------0--------------------|
GtrII|------------------------------------------||------------------------------------------||----7-6-----------------------------------||--------7-4~---7h9p7----------------------|2x|-5-------------------7~--77-9~------------||------------------------------------------|
4.GtrI|------------------------------------------||------------------------------------------||----11-----14-11~-------------------------|2x|-12----14--------11-11-12-14--12-11-------||------------------------------------12~---||------------------------------------------|
GtrII
|------------------------------------------||------------------------------------------||----7--6----------------------------------||----------7--4~---7h9p7-------------------|2x|-5------------------------7~--7-7---9~----||------------------------------------------|
Verse- 1. GtrI
|----------------|--------------------------------------------------------||----------------|--------------------------------------------------------||------7-----7---|--11111111111111-9-9-9-9-9-9-9-1212-121212-12-1212-1212-||-000----00------|--------------------------------------------------------||-000--5-00--5---|--9-9-9-9-9-9-9--7-7-7-7-7-7-7-1010-101010-10-1010-1010-||-000----00------|--------------------------------------------------------| *** **
GtrII|----------------|-----------------------------------------------||----------------|-----------------------------------------------||----------------|-----------------------------------------------||-000--5-00--5---|--9-9-9-9-9-9-9--7-7-7-7-7-7-7-55-555-5-55-55--||-000--5-00--5---|--9-9-9-9-9-9-9--7-7-7-7-7-7-7-55-555-5-55-55--||-000--5-00--5---|--9-9-9-9-9-9-9--7-7-7-7-7-7-7-55-555-5-55-55--|
*** ** 2. GtrI
GtrI|----------------------------------------------------------||----------------------------------------------------------||-111111111111111111111111/999/1111111111111111111111111111||-x-x-x-x-x-x-x-x-x-x-x-x--xxx-x-x-x-x-x-x-x-x-x-x-x-x-x-x-||-9-9-9-9-9-9-9-9-9-9-9-9-/777/9-9-9-9-9-9-9-9-9-9-9-9-9-9-||----------------------------------------------------------|
|---------------------------------------------------------------||---------------------------------------------------------------||--999-/111111111111111111/999999999-1212-121212-12-1212-1212---||---------------------------------------------------------------||--777-/9-9-9-9-9-9-9-9-9-/777777777-1010-101010-10-1010-1010---||---------------------------------------------------------------|
GtrII|---------------------|-----------------------------------------------||---------------------|-----------------------------------------------||---------------------|-----------------------------------------------||-000000000-555555555-|--9-9-9-9-9-9-9--7-7-7-7-7-7-7-55-555-5-55-55--||-000000000-555555555-|--9-9-9-9-9-9-9--7-7-7-7-7-7-7-55-555-5-55-55--||-000000000-555555555-|--9-9-9-9-9-9-9--7-7-7-7-7-7-7-55-555-5-55-55--|
Refrain-
GtrI|---------------------------------------------------------||---------------------------------------------------------||---------------------------------------------------------||-----7------7------7-----7------7------7-----------------|Cont...|-4-5----4h5----4h5---4h5----4h5----4h5-------------------||---------------------------------------------------------|
GtrII|-----------------------------------------------------------||-----------------------------------------------------------||-----------------------------------------------------------||-7-7-7-7-7-7-7-7-9-9-9-9-9-9-9-9-7-7-7-7-7-7--7-9-9-9-9-9--||-7-7-7-7-7-7-7-7-9-9-9-9-9-9-9-9-7-7-7-7-7-7--7-9-9-9-9-9--||-7-7-7-7-7-7-7-7-9-9-9-9-9-9-9-9-7-7-7-7-7-7--7-9-9-9-9-9--|
Pre-
GtrI|-----------------------------------------------------------||-----------------------------------------------------------||-12121212121212121212--------------------------------------||-----------------------------------------------------------||-10101010101010101010--------------------------------------||-----------------------------------------------------------|
Chorus-
GtrI|----------------------------------------------------------||----------------------------------------------------------||-111111111111111111111111/999/1111111111111111111111111111||-x-x-x-x-x-x-x-x-x-x-x-x--xxx-x-x-x-x-x-x-x-x-x-x-x-x-x-x-||-9-9-9-9-9-9-9-9-9-9-9-9-/777/9-9-9-9-9-9-9-9-9-9-9-9-9-9-||----------------------------------------------------------|
|-------------------------------------------------------------------------||-------------------------------------------------------------------------||--999-/111111111111111111/999999999-121212-----------121212--------------||--xxx-x-x-x-x-x-x-x-x-x---xxxxxxxxx-x-x-x--xxxxxxxxx-x-x-x--xxxxxxxxxxxx-||--777-/9-9-9-9-9-9-9-9-9-/777777777-101010-xxxxxxxxx-101010-xxxxxxxxxxxx-||-------------------------------------------xxxxxxxxx--------xxxxxxxxxxxx-|
GtrII|---------------------------------------------------------||---------------------------------------------------------||---------------------------------------------------------||-0-0-0-0-0-0-0-0-0-0-0--5-5-5-5-5-5-5-5-5-5--------------||-0-0-0-0-0-0-0-0-0-0-0--5-5-5-5-5-5-5-5-5-5--------------||-0-0-0-0-0-0-0-0-0-0-0--5-5-5-5-5-5-5-5-5-5--------------|
|-------------------------------------------------------------||-------------------------------------------------------------||----------------------------------777777777-----777777777777-||-9-9-9-9-9-9-9-7-7-7-7-7-7-7-5555-xxxxxxxxx-555-xxxxxxxxxxxx-||-9-9-9-9-9-9-9-7-7-7-7-7-7-7-5555-xxxxxxxxx-555-xxxxxxxxxxxx-||-9-9-9-9-9-9-9-7-7-7-7-7-7-7-5555-xxxxxxxxx-555-xxxxxxxxxxxx-| ********* ************
Interlude- do intro 1,2 Verse- bass & GtrII
GtrI|------------------------------------------||------------------------------------------||------------------------------------------||-0~---------------------------------------|2x|-0~---------------------------------------||-0~---------------------------------------|
GtrII|------------------------------------------||------------------------------------------||----7-6-----------------------------------||--------7-4----7-9-7----------------------|cont..|-5-------------------7---77-9-------------||------------------------------------------| * * * * * * * * * ** *
then
|--------------------------------------------------------------------------||--------------------------------101010-12-------(elevens)-----------------||-9--11-11-11-11-11-11-11-11-9999---------11111111111111111111111111111111-||--------------------------------------------------------------------------||--------------------------------------------------------------------------||--------------------------------------------------------------------------|
(---------3x------------)|------------------------------------------|-----------------------|-------||----(elevens)-----------------------14-14-|-----------------14-14-|-------||-1111111111111111111111111111111111-------|-----------------------|-------||------------------------------------------|-12-12-1111-1212-------|-1212--||------------------------------------------|-----------------------|-------||------------------------------------------|-----------------------|-------|
Repeat RefrainthengtrI|------------------------------------------||------------------------------------------||-6--7----9----11--------------------------||------------------------------------------||-4--5~---7~---9~--------------------------||------------------------------------------|
gtrII|------------------------------------------||------------------------------------------||------------------------------------------||-4--5~---7~---9~--------------------------||-4--5~---7~---9~--------------------------||-4--5~---7~---9~--------------------------|
-Chorus
Chorus cont.1.GtrI|---------------------------------------------------------||---------------------------------------------------------||---------------------------------------------------------||-0~~~-------0~~~-------5~~~-------5~~~-------------------||-0~~~-------0~~~-------5~~~-------5~~~-------------------||-0~~~-------0~~~-------5~~~-------5~-~-------------------|
GtrII|---------------------------------------------------------||---------------------------------------------------------||-77777777--77777777----77777777----77777777--------------||---------------------------------------------------------||---------------------------------------------------------||---------------------------------------------------------|
2.GtrI|------------------------------------------------------------------||------------------------------------------------------------------||-7777777777777777777777777777777777777777777777771111111199999999-||-xxxxxxxxxxxxxxxxxxxxxxxxxxxxxxxxxxxxxxxxxxxxxxxxxxxxxxxxxxxxxxxx-||-5555555555555555555555555555555555555555555555559999999977777777-||------------------------------------------------------------------|
3.
|---------------------------------------------------------||---------------------------------------------------------||----------------------121212121212121212121212-----------||-5-555555555555-5-5-5------------------------------------||-5-555555555555-5-5-5-101010101010101010101010-----------||-5-555555555555-5-5-5------------------------------------| ************ * * *
|---------------------------------------------------------||---------------------------------------------------------||---------------------------------------------------------||-5-555555555555-5-5-5-5-55-5-5-5-5-5-5-5-5-5-5-----------||-5-555555555555-5-5-5-5-55-5-5-5-5-5-5-5-5-5-5-----------||-5-555555555555-5-5-5-5-55-5-5-5-5-5-5-5-5-5-5-----------| ************ * * *
Chorus-
GtrI|----------------------------------------------------------||----------------------------------------------------------||----------------------------------------------------------||----------------------------------------------------------||----------------------------------------------------------||----------------------------------------------------------|
|----------------------------------------------------------||----------------------------------------------------------||-----------------------------/1111111111111111111111111111||------------------------------x-x-x-x-x-x-x-x-x-x-x-x-x-x-||-----------------------------/9-9-9-9-9-9-9-9-9-9-9-9-9-9-||----------------------------------------------------------|
|-------------------------------------------------------------||-------------------------------------------------------------||--999-/111111111111111111/999999999-1212121212121212121212---||--xxx-x-x-x-x-x-x-x-x-x---xxxxxxxxx-x-x-x-x-x-x-x-x-x-x-x----||--777-/9-9-9-9-9-9-9-9-9-/777777777-1010101010101010101010---||-------------------------------------------------------------|
GtrII|---------------------------------------------------------||---------------------------------------------------------||---------------------------------------------------------||-0~------------------------------------------------------||-0~------------------------------------------------------||-0~------------------------------------------------------|
|-------------------------------------------------------------||-------------------------------------------------------------||-------------------------------------------------------------||-9-9-9-9-9-9-9-7-7-7-7-7-7-7-5555555555555555555555555555555-||-9-9-9-9-9-9-9-7-7-7-7-7-7-7-5555555555555555555555555555555-||-9-9-9-9-9-9-9-7-7-7-7-7-7-7-5555555555555555555555555555555-|
2. GtrI
|----------------------------------------------------------||----------------------------------------------------------||-111111111111111111111111/999/1111111111111111111111111111||-x-x-x-x-x-x-x-x-x-x-x-x--xxx-x-x-x-x-x-x-x-x-x-x-x-x-x-x-||-9-9-9-9-9-9-9-9-9-9-9-9-/777/9-9-9-9-9-9-9-9-9-9-9-9-9-9-||----------------------------------------------------------|
|---------------------------------------||---------------------------------------||--999-/111111111111111111/999999999----||--xxx-x-x-x-x-x-x-x-x-x---xxxxxxxxx----||--777-/9-9-9-9-9-9-9-9-9-/777777777----||---------------------------------------|
|---------------------------------------------------------|---------||---------------------------------------------------------|---------||-121212-11119-9-7-7-121212-11119-9-7-7--121212-11119-9-77|---------||--x-x-x-x-x-x-x-x-x-x-x-x-x-x-x-x-x-x-x-x-x-x-x-x-x-x-xxx|-----7-0~|end|-101010-9-9-7-7-5-5-101010-9-9-7-7-5-5--101010-9-9-7-7-55|-4-5---0~||---------------------------------------------------------|-------0~|
GtrII|---------------------------------------------------------||---------------------------------------------------------||---------------------------------------------------------||-0-0-0-0-0-0-0-0-0-0-0--5-5-5-5-5-5-5-5-5-5--------------||-0-0-0-0-0-0-0-0-0-0-0--5-5-5-5-5-5-5-5-5-5--------------||-0-0-0-0-0-0-0-0-0-0-0--5-5-5-5-5-5-5-5-5-5--------------|
|-----------------------------||-----------------------------||-----------------------------||-9-9-9-9-9-9-9-7-7-7-7-7-7-7-||-9-9-9-9-9-9-9-7-7-7-7-7-7-7-||-9-9-9-9-9-9-9-7-7-7-7-7-7-7-|
|---------------------------------------------------------||---------------------------------------------------------||---------------------------------------------------------||--555-55-55-55---555-55-55-55----555-55-55-55---0~-------|end|--555-55-55-55---555-55-55-55----555-55-55-55---0~-------||--555-55-55-55---555-55-55-55----555-55-55-55---0~-------|
Please rate this tab:
x1.0