Urban Dub - Under Crisis tab

Under Crisis by Urban Dub
Standard Tuning
tabbed by wasted_1ne@yahoo.com


i dedicate this tab to my best pals: jozen, nacky, christine c., abie dr
                                     arlyn, zenadie and nely. you guys
                                     rock my world!!! \m/(+_o)\m/


and to you peepz out there....sorry kung hindi ko nilagay yung lyrics.
makining na lang kau sa cd para ma-gets niyo ito okeiz? aheheheheh....
i hope you enjoy this!!!! have fun!!!!   =)

Intro:

----------------------------------------------------|8-10p8-8-10p8-8-------------------------------------|----------------------------------------------------|----------------------------------------------------| 8x----------------------------------------------------|----------------------------------------------------|
----------------------------------------------------|----------------------------------------------------|----------------------------------------------------|----------------------------------------------------| 2x10------------10------------------------------------|---10-8-8-8-----10-8-10s12--------------------------|
----------------------------------------------------|----------------------------------------------------|----------------------------------------------------| listen carefully sa CD9-9-9-9-9-9-9-10-10-10-10-10-10-10------------------| sa part na to... ;)----------------------------------------------------|----------------------------------------------------|
Verse I
----------------------------------------------------|----------------------------------------------------|----------------------------------------------------|----------------------------------------------------| 2x10-10p8-10s12-12-12-12-12---------------------------|----------------------------------------------------|
----------------------------------------------------|----------------------------------------------------|----------------------------------------------------|----------------------------------------------------| 2x14-14p12-14s15-15-15-15-15--------------------------|----------------------------------------------------|
(makining ka rin sa CD sa part na ito, mahirap kasi I-tab eh...aheheheheheh...)
-----------------------------------------------------|-----------------------------------------------------|-----------------------------------------------------|10-10-10-10-9-9-9-9-10-10-10-10-10-10-10-10----------|(3x)-----------------------------------------------------|-----------------------------------------------------|
----------------------------------------------------|----------------------------------------------------|----------------------------------------------------|----9-9-9-9-10-10-10-10-----------------------------|----------------------------------------------------|----------------------------------------------------|
----------------------------------------------------|----------------------------------------------------|-------------------------------12-10-9-10s3---------|8-8-8-8-8-8-8-8-8-8-8-8-----------------------------|8-8-8-8-8-8-8-8-8-8-8-8-----------------------------|6-6-6-6-6-6-6-6-6-6-6-6-----------------------------|
Chorus
------------------------------------------------------------------|------------------------------------------------------------------|------------------------------------------------------------------|3-3-3-3-3-3-3-3-3-3-3-3-3-3-3-3/7-7-7-7-7-7-7-7-7-----------------| 2x3-3-3-3-3-3-3-3-3-3-3-3-3-3-3-3/7-7-7-7-7-7-7-7-7--5-7-5-5s3-3-3--|1-1-1-1-1-1-1-1-1-1-1-1-1-1-1-1/5-5-5-5-5-5-5-5-5-----------------|
I need a savior now....
------------------------------------------------------------------|------------------------------------------------------------------|------------------------------------------------------------------|3-3-3-3-3-3-3-3-3-3-3-3-3-3-3-3/9-9-9-9-9-9-9-9-9--9-10-9-9s7-7-7-|3-3-3-3-3-3-3-3-3-3-3-3-3-3-3-3/9-9-9-9-9-9-9-9-9-----------------|1-1-1-1-1-1-1-1-1-1-1-1-1-1-1-1/7-7-7-7-7-7-7-7-7-----------------|
I need a savior now....
--------------------------------------------------------------|--------------------------------------------------------------|--------------------------------------------------------------|3-3-3-3-3-3-3-3-3-3-3-3-3-3-3-3/7-7-7-7-7-7-7-7-7-------------|3-3-3-3-3-3-3-3-3-3-3-3-3-3-3-3/7-7-7-7-7-7-7-7-7-------------|1-1-1-1-1-1-1-1-1-1-1-1-1-1-1-1/5-5-5-5-5-5-5-5-5-------------|
Verse II
----------------------------------------------------|----------------------------------------------------|----------------------------------------------------|----------------------------------------------------| 2x10-10p8-10s12-12-12-12-12---------------------------|----------------------------------------------------|
----------------------------------------------------|----------------------------------------------------|----------------------------------------------------|----------------------------------------------------| 2x14-14p12-14s15-15-15-15-15--------------------------|----------------------------------------------------|
----------------------------------------------------|----------------------------------------------------|----------------------------------------------------| just listen to the CD10-10-10-10-9-9-9-9-10-10-10-10-10-10-10-10---------| to get it right at this----------------------------------------------------| part too... =)----------------------------------------------------|
Adlib
-----------------------------------------------------------------------|-----------------------------------------------------------------------|-----------------------------------------------------------------------|3-3-3-3-3-3-3-3/5-5-5-5-5-5-5-5/7-7-7-7-7-7-7-7-7-7-7-7-7-7-7-7--------|3-3-3-3-3-3-3-3/5-5-5-5-5-5-5-5/7-7-7-7-7-7-7-7-7-7-7-7-7-7-7-7--------|1-1-1-1-1-1-1-1/3-3-3-3-3-3-3-3/5-5-5-5-5-5-5-5-5-5-5-5-5-5-5-5--------|
Oooooohh.....ooooohhh....
-----------------------------------------------------|-----------------------------------------------------|-----------------------------------------------------|-----------------------------------------------------|--8-8-7-8s10-10s12-12-12-12-12-12-12-----------------|8----------------------------------------------------|
I'm tired, I'm tired of falling down...
----------------------------------------------------|----------------------------------------------------|----------------------------------------------------|-------------------8-8-8-8-8-8-8-8-8-8-8-8----------|-----8-8-7-8s10-7--8-8-8-8-8-8-8-8-8-8-8-8----------|---8---------------6-6-6-6-6-6-6-6-6-6-6-6----------|
I'm tired, I'm tired! ...
-----------------------------------------------------|-----------------------------------------------------|12-10-9-10s3-----------------------------------------|-----------------------------------------------------|-----------------------------------------------------|-----------------------------------------------------|
Outro:
-------------------------------------------------------------|-------------------------------------------------------------|-------------------------------------------------------------|-------------------------------------------------------------| 2x10-----------10--------------10----------10------------------|---10-8-8-8---10-8-10s12---10-8-8-8---10-8h10p8--------------|
-------------------------------------------------------------|-------------------------------------------------------------|-------------------------------------------------------------|-------------------------------------------------------------|-------------------------------------------------------------|10-10p8-10s12-12-12-12-12-14-14p12-14s15-15-15-15-15---------|
Tap to rate this tab
 
# A B C D E F G H I J K L M N O P Q R S T U V W X Y Z