Used - Sometimes I Just Go For It tab

The Used-
Sometimes I Just go for it Tab 

Gtr I|------------|----------|--------------|-----------------||----------5-|-(5)------|----------5---|---------5h6p5---||--------5---|----------|--------5---7-|-(7)---7-------7-||------7-----|----------|------7-------|-----7-----------||----7-------|----------|----7---------|-----------------||-5----------|----------|--------------|-----------------|
|
| Gtr II|------------|----------|--------------|-----------------||------------|----------|--------------|-^3--------------||------------|----------|-^2-----------|-^2--------------||------------|----------|-^2-----------|-^0--------------||------------|----------|-^0-----------|-----------------||------------|----------|--------------|-----------------|
|--------------|-------------|-----------------|---------------||--5-----------|-------------|-----------------|---------------||------5-5-7h9-|-7-----------|-4h5-------------|---------4-----||----5---------|---9---9---9-|------7----(7)-7-|-6---(6)----6--||--------------|-------------|-----------------|---------------||--------------|-------------|-----------------|---------------|
|
|--------------|-------------|-----------------|---------------||-^1-----------|-------------|-----------------|---------------||-^0-----------|---------0---|-----------------|---------------||-^2-----------|-----0-------|------------3----|------2--------||-^3-----------|-------------|---------3-------|---2-----------||--------------|-3-----------|-1---(1)---------|-0-------------|
|---------------|----------------|--------------|-----------------||---------------|----------------|----------5---|---------5h6p5---||---------------|---------7--5p4-|--------5---7-|-(7)---7-------7-||-7---(7)-7---7-|-6---(6)--------|--7---7-------|-----7-----------||---------------|----------------|----7---------|-----------------||---------------|----------------|--------------|-----------------|
|
|---------------|----------------|--------------|-----------------||---------------|----------------|--------------|-^3--------------||---------------|----------------|-^2-----------|-^2--------------||------3--------|------2---------|-^2-----------|-^0--------------||---3-------3---|---2------------|-^0-----------|-----------------||-1-------------|-0--------------|--------------|-----------------|
Slower Q=H=H|--------------|-------------|----------------||--5-----------|-------------|----------------||------5-5-7h9-|-7-----------|-5--------(5)---||----5---------|---9---9---9-|--------------7-||--------------|-------------|----------------||--------------|-------------|----------------|
|
|--------------|-------------|----------------||-^1-----------|-------------|----------------||-^0-----------|---------0---|----------------||-^2-----------|-----0-------|-----------3----||-^3-----------|-------------|--------3-------||--------------|-3-----------|-1--(1)---------|
a tempo Q=110|--------------|---------------|----------------|||--------------|---------------|----------------|||---------4----|---------------|---------7--5p4-|||-6---(6)----6-|-7---(7)-7---7-|-6---(6)--------|||--------------|---------------|----------------|||--------------|---------------|----------------||
|
|--------------|---------------|----------------|||--------------|---------------|----------------|||--------------|---------------|----------------|||------2-------|------3--------|------2---------|||---2----------|---3-------3---|---2------------|||-0------------|-1-------------|-0--------------||
|---------------|---------------|----------------|--------------||---------------|---------------|----------------|--------------||-2-------(2)-5-|-4-------(4)-7-|-5-------(5)--9-|-7------------||-2-------(2)-7-|-5-------(5)-5-|-3-------(3)-10-|-9---9--10-7--||---------------|---------------|----------------|--------------||---------------|---------------|----------------|--------------|
|
|---------------|---------------|----------------|--------------||---------------|---------------|----------------|--------------||-----2----2----|-----0----0----|----------------|--------------||---2---2-----2-|---0---0-----0-|-----3----3-----|-----2--------||-0-------------|---------------|---3---3------3-|---2----------||---------------|-3-------------|-1--------------|-0------------|
|-------------|-------------|-------------|--------------||-------------|-------------|-------------|-------9--10--||-------5s==4-|-------7s==5-|--------9s=7-|-------9---9--||-------7s==5-|-------9s==7-|-------10s=9-|--------------||-------------|-------------|-------------|--------------||-------------|-------------|-------------|--------------|
|
|-------------|-------------|-------------|--------------||-------------|-------------|-------------|--------------||-----2-------|-----0-------|-------------|--------------||---2-----2---|---0-----0---|-----3-------|-----2--------||-0-----------|-------------|---3---------|---2----------||-------------|-3-----------|-1-----------|-0------------|
|-----------------|-7---(7)-7---10-|-8---(8)-8---12-|-10---7---------||-10---10---10h13-|-8---(8)-8----8-|-6---(6)-6---13-|-12---5--13p12--||--9----9----9----|----------------|----------------|----------------||-----------------|----------------|----------------|----------------||-----------------|----------------|----------------|----------------||-----------------|----------------|----------------|----------------|
|
|-----------------|----------------|----------------|----------------||-----------------|----------------|----------------|----------------||-------2----2----|------0---------|----------------|----------------||----2----2-----2-|---0-------0----|------3---------|------2---------||--0--------------|----------------|---3-------3----|----2-----------||-----------------|-3--------------|-1--------------|--0-------------|
To Coda|-------------------|------------------|-------------------||-13p12-10h12-13p12-|-10h12-8h10-10h12-|-------------------||-------------------|------------------|-14p12-10h12-14s10-||-------------------|------------------|-------------------||-------------------|------------------|-------------------||-------------------|------------------|-------------------|
|
|--------5-----5----|-------3-----3----|--------1-----1----||-----5-----5-----5-|-----3----3-----3-|-----1-----1-----1-||--2----------------|--0---------------|-------------------||-------------------|------------------|--3----------------||-------------------|------------------|-------------------||-------------------|------------------|-------------------|
|----------------|---------------|---------------|----------------|||----------------|---------------|---------------|----------9-10--|||-9---(9)-9----9-|--9---9---9--9-|--9-9---9----9-|--9-9---9-9--9--|||-9---(9)-9---10-|-10---9---9-10-|-10-9---9---10-|-10-9---9-------|||----------------|---------------|---------------|----------------|||----------------|---------------|---------------|----------------||
|
|----------------|---------------|---------------|----------------|||----------------|---------------|---------------|----------------|||----------------|---------------|---------------|----------------|||------2----2----|------2---2----|------2---2----|------2---2-----|||---2-----2----2-|----2---2----2-|----2---2----2-|----2---2----2--|||-0--------------|--0------------|--0------------|--0-------------||
|--------------|-----------------|--------------|-------------||----------5---|---------5h6p5---|--5-----------|-------------||--------5---7-|-(7)---7-------7-|------5-5-7h9-|-7-----------||------7-------|-----7-----------|----5---------|---9---9---9-||----7---------|-----------------|--------------|-------------||--------------|-----------------|--------------|-------------|
|
|--------------|-----------------|--------------|-------------||--------------|-^3--------------|-^1-----------|-------------||-^2-----------|-^2--------------|-^0-----------|---------0---||-^2-----------|-^0--------------|-^2-----------|-----0-------||-^0-----------|-----------------|-^3-----------|-------------||--------------|-----------------|--------------|-3-----------|
|-----------------|------------|-----------------|----------------||-----------------|------------|-----------------|----------------||-4h5-------------|-----4------|-----------------|---------7--5p4-||------7----(7)-7-|-6------6h7-|-(7)---(7)-7---7-|-6---(6)--------||-----------------|------------|-----------------|----------------||-----------------|------------|-----------------|----------------|
|
|-----------------|------------|-----------------|----------------||-----------------|------------|-----------------|----------------||-----------------|------------|-----------------|----------------||------------3----|-----2------|--------3--------|------2---------||---------3-------|---2--------|-----3-------3---|---2------------||-1---(1)---------|-0----------|--1--------------|-0--------------|
|--------------|-----------------|--------------|-------------||----------5---|---------5h6p5---|--5-----------|-------------||--------5---7-|-(7)---7-------7-|------5-5-7h9-|-7-----------||--7---7-------|-----7-----------|----5---------|---9---9---9-||----7---------|-----------------|--------------|-------------||--------------|-----------------|--------------|-------------|
|
|--------------|-----------------|--------------|-------------||--------------|-^3--------------|-^1-----------|-------------||-^2-----------|-^2--------------|-^0-----------|---------0---||-^2-----------|-^0--------------|-^2-----------|-----0-------||-^0-----------|-----------------|-^3-----------|-------------||--------------|-----------------|--------------|-3-----------|
D.S. al Coda|-----------------|--------------|---------------|----------------|||-----------------|--------------|---------------|----------------|||-4h5-------------|---------4----|---------------|---------7--5p4-|||------7----(7)-7-|-6---(6)----6-|-7---(7)-7---7-|-6---(6)--------|||-----------------|--------------|---------------|----------------|||-----------------|--------------|---------------|----------------||
|
|-----------------|--------------|---------------|----------------|||-----------------|--------------|---------------|----------------|||-----------------|--------------|---------------|----------------|||------------3----|------2-------|------3--------|------2---------|||---------3-------|---2----------|---3-------3---|---2------------|||-1---(1)---------|-0------------|-1-------------|-0--------------||
SloH.=H Q=94 a tempo Q=110|------------------|------------------||--------------|-----------------||-------12---10h12-|-------12---10h12-||--------------|-----------------||-12h14------------|-12h14------------||-7h9------5h7-|-----------------||------------------|------------------||-----10-------|-9---(9)-9---10--||------------------|------------------||--------------|-----------------||------------------|------------------||--------------|-----------------|
|
|--------3----3----|--------3----3----||--------------|-----------------||-----3----3-----3-|-----3----3-----3-||--------------|-----------------||--0---------------|--0---------------||------2---2---|-----------------||------------------|------------------||---2----2---2-|------2----2-----||------------------|------------------||-0------------|---2-----2----2--||------------------|------------------||--------------|-0---------------|
|----------------|--------------|----------------||----------------|------8-----8-|----------------||----------------|----7---9-----|-7h9------------||-7---(7)-7---10-|-10-----------|-----10---10h12-||----------------|--------------|----------------||----------------|--------------|----------------|
|
|----------------|--------------|----------------||----------------|--------------|------1----1----||----------------|------0-------|---0----0-----0-||------3----3----|----0-----0---|----------------||---3-----3----3-|--------------|-3--------------||-1--------------|--3-----------|----------------|
|----------------|----------------|----------------|---------------||----------------|----------------|--------8-------|---------------||----------------|----------------|------7---------|-7-9-----------||-9---(9)-9---10-|-7---(7)-7---10-|----9-----12p10-|-----------12--||----------------|----------------|-10-------------|---------------||----------------|----------------|----------------|---------------|
|
|----------------|----------------|----------------|---------------||----------------|----------------|----------------|-----1---1-----||----------------|----------------|------0---------|---0---0----0--||------2---------|------3---------|----0------0----|---------------||---2-------2----|---3-------3----|----------------|-3-------------||-0--------------|-1--------------|--3-------------|---------------|
H.=H|----------------|---------------|-----------------||----------------|---------------|-----------------||----------------|---------------|-----------------||-9---(9)-9---10-|-7---(7)-7---5-|-(5)-----------9-||----------------|---------------|-----------10-10-||----------------|---------------|-----------------|
|
|----------------|---------------|-----------------||----------------|---------------|-----------------||----------------|---------------|-------0----0----||------2---------|------3--------|-----0---0-----0-||---2-------2----|---3-------3---|-----------------||-0--------------|-1-------------|--3--------------|
|------------------|------------------|-----------------|||------------------|------------------|-----------------|||------------------|------------------|-----------------|||--9--------(9)--9-|--9--------(9)--9-|--9----9----9--9-|||-10-------(10)-10-|-10-------(10)-10-|-10---10---10-10-|||------------------|------------------|-----------------||
|
|------------------|------------------|-----------------|||------------------|------------------|-----------------|||------0-----0-----|------0-----0-----|-------0----0----|||----0---0-------0-|----0---0-------0-|----0----0-----0-|||------------------|------------------|-----------------|||--3---------------|--3---------------|--3--------------||
Q=134||--------------------|---------------------|||o-------------------|---------------------|||--0---(0)-2-------4-|-(4)-----5-------5h7-|||--2---(2)-3-------5-|-(5)-----7-----------|||o-------------------|---------------------|||--------------------|---------------------|
|
||--------------------|---------------------|||o-------------------|---------------------|||-------2------------|-------0-------2-----|||----2-----------3---|-----0-------2-------|||o-0-----------3-----|-----------0---------|||------------1-------|--3------------------|
|---------------------|--------------------||---------------------|--------------------||-9p0----9-------10p9-|--------------0-0-0-||-----10--------------|-9p0----9-----0-0-0-||---------------------|-----10-------------||---------------------|--------------------|
|
|---------------------|--------------------||------1--------------|--------------------||---0----------2------|------0---(0)-------||------------2--------|---0----------0-0-0-||-3--------0----------|--------------5-5-5-||---------------------|-3------------3-3-3-|
|-------------------|---------------------||-------------------|---------------------||-0---(0)-2-------4-|-(4)-----5-------5h7-||-2---(2)-3-------5-|-(5)-----7-----------||-------------------|---------------------||-------------------|---------------------|
|
|-------------------|---------------------||-------------------|---------------------||------2------------|-------0-------2-----||---2-----------3---|-----0-------2-------||-0-----------3-----|-----------0---------||-----------1-------|--3------------------|
|----------------------|---------------------|||----------------------|--------------------o|||-9p0-------------10p9-|--------------0-0-0--|||-----10-12------------|-9p0----9-----0-0-0--|||----------------------|-----10-------------o|||----------------------|---------------------||
|
|----------------------|---------------------|||------1---------------|--------------------o|||---0-----------2------|------0---(0)--------|||-------------2--------|---0----------0-0-0--|||-3---------0----------|--------------5-5-5-o|||----------------------|-3------------3-3-3--||
Q=110|---------------------|--------------------------||---------------------|--------------------------||---------------------|--------------------------||-12p0----9p0-----9p0-|-----9p0-----9p0----10h12-||------10-----10-10---|-10-10---10-10---10-------||---------------------|--------------------------|
|
|---------------------|--------------------------||---------------------|--------------------------||-------0------0------|--0-------0-------0-------||----0------0-------0-|-------0-------0-----0----||---------------------|--------------------------||--3------3-------3---|-----3-------3------------|
|------------------|---------------------||------------------|---------------------||--9-----------7p5-|---------------------||------7-10--------|--9-------(9)-10h12--||----7----8--------|-10------(10)--------||------------------|---------------------|
|
|------------------|-^3------------------||------------------|-^3------------------||-^2---------------|-^0------------------||-^2---------------|-^0------------------||-^0---------------|-^2------------------||------------------|-^3------------------|
|----------------------|--------------------||----------------------|--------------------||--9--------------7p=5-|--------------------||-------7--10----------|--9-------(9)-10h12-||----7------8----------|-10------(10)-------||----------------------|--------------------|
|
|----------------------|-^3-----------------||----------^1----(1)---|-^3-----------------||-^2---(2)-^2----(2)---|-^0-----------------||-^2---(2)-^3----(3)---|-^0-----------------||-^0---(0)-------------|-^2-----------------||----------------------|-^3-----------------|
|----------------------|-----------------|||----------------------|-----------------|||--9--------------7p=5-|-----------------|||-------7--10----------|--9-------(9)-9--|||----7------8----------|-10------(10)----|||----------------------|-----------------||
|
|----------------------|-^3--------------|||----------^1----(1)---|-^3--------------|||-^2---(2)-^2----(2)---|-^0--------------|||-^2---(2)-^3----(3)---|-^0--------------|||-^0---(0)-------------|-^2--------------|||----------------------|-^3--------------||
Breakdown (Literally...) Free Time Q=120|---------------------------------|-------------------------------||---------------------------------|-------------------------------||---------------------------------|-------------------------------||-7-9-10-9-10-12-10-12-14-12-10-9-|-7-9-10-9-10-12-10---10----9---||---------------------------------|----------------12---12---10---||---------------------------------|-------------------------------|
|
|---------------------------------|-------------------------------||---------------------------------|-------------------------------||--------------0--------2-------0-|--------------0-------2----0---||------3----0--------2--------0---|------3----0-------2----2----0-||---3-------------0---------------|---3-------------0-------------||-1------3-----------------3------|-1------3----------------------|
|-----------------------------||-----------------------------||-----------------------------||-----------------------9-----||-10-12---12------12p10-------||--------------------------10-|
|
|-----------------------------||-----------------------------||-----------------------------||-------3----3-----3----------||-----3----3----------3-------||--1------------3-------------|
|--------------------|----------------------------||--------------------|----------------------------||--------------------|----------------------------||-----5--------------|----------------------------||-6---------6--------|-------6-9---------2--------||---------------8--7-|-(7)-7---------4-3---2-3-0--|
|
|--------------------|----------------------------||--------------------|----------------------------||--------------------|----------------------------||--------------------|----------------------------||--------------------|----------------------------||-2-----1-----3------|--2----2-3-0-2---0---2-1-4--|
|--------------------------|-----------------------------------||--------------------------|-----------------------------------||--------------------------|-----------------------------------||--------------------------|-----------------------------------||-0-0--------0-------------|-------------------3---2-----------||-----3p2--1-----3-4-6s5---|-3-1-----2---(2)---------2h3p1h2p1-|
|
|--------------------------|-----------------------------------||--------------------------|-----------------------------------||--------------------------|-----------------------------------||--------------------------|-----------------------------------||----------------1---------|---------3-2-----------------------||-0-0------2-3-2---3---4-4-|-2---(2)---------2---3-2-3-2---2-0-|
Guitars 1 and 2|--------------------|-0-0-0-0-0-(0)-0-(0)-0-0-(0)-0-0-0-0-0-||--------------------|-0-0-0-0-0-(0)-0-(0)-0-0-(0)-0-0-0-0-0-||-----------------0--|-0-0-0-0-0-(0)-0-(0)-0-0-(0)-0-0-0-0-0-||---0------0---0-(0)-|-0-0-0-0-0-(0)-0-(0)-0-0-(0)-0-0-0-0-0-||-0-0-0-0--0-0-0-(0)-|-0-4-0-0-4-(4)-0-(0)-4-0-(0)-4-4-0-4-4-||-2-0-1-3--0-1-0-(0)-|-0-0-0-0-0-(0)-2-(2)-3-2-(2)-0-3-2-3-0-|
|-0-0-(0)-0-0-(0)-0-0-0-0-0-0-0-0-0-0-0-0-0-0-||-0-0-(0)-0-0-(0)-0-0-0-0-0-0-0-0-0-0-0-0-0-0-||-0-0-(0)-0-0-(0)-0-0-0-0-0-0-2-0-0-0-0-0-0-0-||-0-0-(0)-0-0-(0)-0-0-0-0-0-0-0-0-0-0-0-0-0-0-||-4-0-(0)-4-0-(0)-4-4-0-4-4-4-0-6-4-4-0-4-4-4-||-0-2-(2)-3-2-(2)-0-3-2-3-0-3-2-3-0-3-2-3-0-0-|
|-0-0-(0)-0-0-(0)-0-0-0-0-0-0-0-0-0-0-0-0-0-0-||-0-0-(0)-0-0-(0)-0-0-0-0-0-0-0-0-0-0-0-0-0-0-||-0-0-(0)-0-0-(0)-0-0-0-0-0-0-2-0-0-0-0-0-0-0-||-0-0-(0)-0-0-(0)-0-0-0-0-0-0-0-0-0-0-0-0-0-0-||-4-0-(0)-4-0-(0)-4-4-0-4-4-4-0-6-4-4-0-4-4-4-||-0-2-(2)-3-2-(2)-0-3-2-3-0-3-2-3-0-3-2-3-0-0-|
|-0-0-(0)-0-0-(0)-0-0-0-0-0-0-0-0-0-0-0-0-0-0-||-0-0-(0)-0-0-(0)-0-0-0-0-0-0-0-0-0-0-0-0-0-0-||-0-0-(0)-0-0-(0)-0-0-0-0-0-0-2-0-0-0-0-0-0-0-||-0-0-(0)-0-0-(0)-0-0-0-0-0-0-0-0-0-0-0-0-0-0-||-4-0-(0)-4-0-(0)-4-4-0-4-4-4-0-6-4-4-0-4-4-4-||-0-2-(2)-3-2-(2)-0-3-2-3-0-3-2-3-0-3-2-3-0-0-|
|-0-0-(0)-0-0-(0)-0-0-0-0-0-0-0-0-0-0-0-0-0-0-||-0-0-(0)-0-0-(0)-0-0-0-0-0-0-0-0-0-0-0-0-0-0-||-0-0-(0)-0-0-(0)-0-0-0-0-0-0-2-0-0-0-0-0-0-0-||-0-0-(0)-0-0-(0)-0-0-0-0-0-0-0-0-0-0-0-0-0-0-||-4-0-(0)-4-0-(0)-4-4-0-4-4-4-0-6-4-4-0-4-4-4-||-0-2-(2)-3-2-(2)-0-3-2-3-0-3-2-3-0-3-2-3-0-0-|
Gtr I|-0-0-(0)-0-0-(0)-0-0-0-0-0-0-0-0-0-0----------||-0-0-(0)-0-0-(0)-0-0-0-0-0-0-0-0-0-0----------||-0-0-(0)-0-0-(0)-0-0-0-0-0-0-2-0-0-0--0-(0)-0-||-0-0-(0)-0-0-(0)-0-0-0-0-0-0-0-0-0-0--2-(2)-2-||-4-0-(0)-4-0-(0)-4-4-0-4-4-4-0-6-4-4----------||-0-2-(2)-3-2-(2)-0-3-2-3-0-3-2-3-0-3----------|
|
| Gtr II|-0-0-(0)-0-0-(0)-0-0-0-0-0-0-0-0-0-0----------||-0-0-(0)-0-0-(0)-0-0-0-0-0-0-0-0-0-0----------||-0-0-(0)-0-0-(0)-0-0-0-0-0-0-2-0-0-0--0--0--0-||-0-0-(0)-0-0-(0)-0-0-0-0-0-0-0-0-0-0--2--2--2-||-4-0-(0)-4-0-(0)-4-4-0-4-4-4-0-6-4-4--2--2--2-||-0-2-(2)-3-2-(2)-0-3-2-3-0-3-2-3-0-3--0--0--0-|
Q=134||--------------------|----------------------|||o-------------------|----------------------|||--0---(0)-2-------4-|-(4)-----5-------5h7--|||--2---(2)-3-------5-|-(5)-----7------------|||o-------------------|----------------------|||--------------------|----------------------|
|
||--------------------|----------------------|||o-------------------|----------------------|||-------2------------|-------0-------2------|||----2-----------3---|-----0-------2--------|||o-0-----------3-----|-----------0----------|||------------1-------|--3-------------------|
|---------------------|--------------------||---------------------|--------------------||-9p0----9-------10p9-|--------------0-0-0-||-----10--------------|-9p0----9-----0-0-0-||---------------------|-----10-------------||---------------------|--------------------|
|
|---------------------|--------------------||------1--------------|--------------------||---0----------2------|------0---(0)-------||------------2--------|---0----------0-0-0-||-3--------0----------|--------------5-5-5-||---------------------|-3------------3-3-3-|
|-------------------|---------------------||-------------------|---------------------||-0---(0)-2-------4-|-(4)-----5-------5h7-||-2---(2)-3-------5-|-(5)-----7-----------||-------------------|---------------------||-------------------|---------------------|
|
|-------------------|---------------------||-------------------|---------------------||------2------------|-------0-------2-----||---2-----------3---|-----0-------2-------||-0-----------3-----|-----------0---------||-----------1-------|--3------------------|
|----------------------|---------------------|||----------------------|--------------------o|||-9p0-------------10p9-|--------------0-0-0--|||-----10-12------------|-9p0----9-----0-0-0--|||----------------------|-----10-------------o|||----------------------|---------------------||
|
|----------------------|---------------------|||------1---------------|--------------------o|||---0-----------2------|------0---(0)--------|||-------------2--------|---0----------0-0-0--|||-3---------0----------|--------------5-5-5-o|||----------------------|-3------------3-3-3--||
Q=110|---------------------|--------------------------||---------------------|--------------------------||---------------------|--------------------------||-12p0----9p0-----9p0-|-----9p0-----9p0----10h12-||------10-----10-10---|-10-10---10-10---10-------||---------------------|--------------------------|
|
|---------------------|--------------------------||---------------------|--------------------------||-------0------0------|--0-------0-------0-------||----0------0-------0-|-------0-------0-----0----||---------------------|--------------------------||--3------3-------3---|-----3-------3------------|
|------------------|--------------------|-----------------------||------------------|--------------------|-----------------------||--9-----------7p5-|--------------------|--9----------------7p5-||------7-10--------|--9-------(9)-10h12-|-------7--10-----------||----7----8--------|-10------(10)-------|----7------8-----------||------------------|--------------------|-----------------------|
|
|------------------|-^3-----------------|-----------------------||------------------|-^3-----------------|----------^1-(1)-------||-^2---------------|-^0-----------------|-^2---(2)-^2-(2)-------||-^2---------------|-^0-----------------|-^2---(2)-^3-(3)-------||-^0---------------|-^2-----------------|-^0---(0)--------------||------------------|-^3-----------------|-----------------------|
H.=H|-------------------|-----------------------|-----------|--------*||-------------------|-----------------------|-----------|--------*||---------(4)-------|--9----------------7p5-|--4--------|-(4)----*||--9------(5)-10h12-|-------7--10-----------|-----------|--------*||-10----------------|----7------8-----------|-----------|--------*||-------------------|-----------------------|-----------|--------*|
|
|-^3----------------|-----------------------|-^3--------|-(3)----*||-^3----------------|----------^1-(1)-------|-^3--------|-(3)----*||-^0----------------|-^2---(2)-^0-(0)-------|-^0--------|-(0)----*||-^0----------------|-^2---(2)-^2-(2)-------|-^0--------|-(0)----*||-^2----------------|-^0---(0)-^3-(3)-------|-^2--------|-(2)----*||-^3----------------|-----------------------|-^3--------|-(3)----*|
Tap to rate this tab
 
# A B C D E F G H I J K L M N O P Q R S T U V W X Y Z