Used - Find A Way tab

There are many obscure layered guitar parts in this song, but here are the ones you hear 
front.  Enjoy

Intro

E||-----7-----11----7-------|B||--7-----7----------------|G||----------------------9--|D||-------------------------|A||-------------------------|D||-------------------------|
-----7---------7--------|-----7---------7--------|------------------------|------------------------|----------9---------8h--|--9-------9---------8h--|------------------------|------------------------|------------------------|------------------------|------------------------|------------------------|
-----7---------7--------|---------11----7---------|------------------------|-----7-------------------|--9-------9---------8h--|--9-----------------9----|------------------------|-------------------------|------------------------|-------------------------|------------------------|-------------------------|
--7---------7-----------|--7---------7-----------|------------------------|------------------------|-------9---------8h--9--|-------9---------8h--9--|------------------------|------------------------|------------------------|------------------------|------------------------|------------------------|
--7---------7---------||----------------------||-------9---------8----||----------------------||----------------------||----------------------||
Verse 1
----------------7----|-----0----------------|---------------------|----------------------|--8------9-----------|-----------------8----|---------------------|----------------------|---------------------|----------------------|---------------------|----------------------|
-------------------|--------------------|-------------------|--12----------------|--L----------------|--11----------------|-------------------|---9----------------|-------------------|--------------------|-------------------|--------------------|
----------------7----|-----0----------------|---------------------|----------------------|--8------9-----------|-----------------8----|---------------------|----------------------|---------------------|----------------------|---------------------|----------------------|
W-------------------|-------------------||-------------------|-------------------||--L----------------|-------------------||-------------------|-------------------||-------------------|-------------------||-------------------|-------------------||
Chorus 1
----------------0------|-------------------|-----------4-----------|-------------------|--3s--4----------------|-------------------|-----------------------|-------------------|-----------------------|-------------------|-----------------------|-------------------|
----------------0------|-------------------|----4------4-----------|-------------------|------4----------------|-------------------|-----------------------|-------------------|-----------------------|-------------------|-----------------------|-------------------|
----------------0------|-------------------|-----------4-----------|-------------------|--3s--4----------------|-------------------|-----------------------|-------------------|-----------------------|-------------------|-----------------------|-------------------|
----------------0-------|----------------------||-----------4---------4--|----------------------||--3s--4-----------------|----4-----------------||------------------------|----4-----------------||------------------------|----2-----------------||------------------------|----------------------||
Verse 2
---------0--x--0-------|---------0--x--0-------|---------0--x--0-------|---------0--x--0-------|---------0--x--0-------|---------0--x--0-------|---------4--x--4-------|---------4--x--4-------|---------4--x--4-------|---------4-----4-------|---------4-----4-------|---------4-----4-------|--2--------------------|--4--------------------|-----------------------|-----------------------|-----------------------|--4--------------------|
--0------0--x--0-------|--0------0--x--0-------|--4------4--x--4-------|--4------4-----4-------|-----------------------|-----------------------|
(This is the high part)--12----12-11--14----12-----|--12----12-11--14---------||----------------------------|--------------------------||----------------------------|--------------------------||----------------------------|--------------------------||----------------------------|--------------------------||----------------------------|--------------------------||
Chorus 2
-----------7-----------|-------------------|-----------------------|-------------------|--8h--9----------------|-------------------|-----------------------|-------------------|-----------------------|-------------------|-----------------------|-------------------|
--------------7--------|-------------------|-----------------------|-------------------|-----9p8h9-------------|-------------------|-----------------------|-------------------|-----------------------|-------------------|-----------------------|-------------------|
-----------7-----------|-------------------|-----------------------|-------------------|--8h--9----------------|-------------------|-----------------------|-------------------|-----------------------|-------------------|-----------------------|-------------------|
--------------7--------|-----------------------|-----9p8h9-------------|-----------------------|-----------------------|-----------------------|
--------7--------7------|--------7--------7------|--------7--------7------|------------------------|------------------------|------------------------|--8--9-----8--9---------|--8--9-----8--9---------|--8--9-----8--9---------|------------------------|------------------------|------------------------|------------------------|------------------------|------------------------|------------------------|------------------------|------------------------|
------------------------||------------------------||--8--9--9--8--9--9------||--------7--------7------||------------------------||------------------------||
Bridge & Final Chorus
Strum this 'till intro part is played again, and that's the song.|----0-----------------|||----0-----------------|||----4-----------------|||----4-----------------|||----2-----------------|||----------------------||
Tap to rate this tab
 
# A B C D E F G H I J K L M N O P Q R S T U V W X Y Z