Uverworld - D-tecnolife tab

Uverworld D-tecnolife Bleach Opening


1:25 version
 
Sorry guys my last tab was awful i dont know how i managed to type it that badly


-----------------4---------------|---5-4-5-7-5-4-5---5-7-5-4-5-4---|-6-----------------------------4-|---------------------------------| x2---------------------------------|---------------------------------|
Verse
-----------------------------------------------------------------12slidedown--11-9-11-9-11-9-11-9-11-9-------------------------------------------------- x3----------------------------------------------------------------------------
---------------------------------------------------------------12slideup--11-9-11-9-11-9-11-9-11-9----------------------------------------------------------------------------------------------------------------------
Prechorus
---------------------------------------|---------------------------------------|---11-9-9---11-9-9---11111111----------|---x--x-x---x--x-x---x-x-x-x-----------| x2---9--7-7---9--7-7---9-9-9-9-----------|---------------------------------------|
-----------------------------|-----------------------------|-----------------------------|-6-666--7-777--6--6--666-----|-6-666--7-777--6--6--666-----|-4-444--7-777--6--6--666-----|
Chorus, Strum
-------------------|-6---------9-------|-6---7--9--9-------| x2-4---7--9--7-------|-----7--9----------|
--------------------|--------------------|-6--------9-9-8-6-4-|-6--7--9--9-9-8-6-4-|-4--7--9--7-7-6-4-2-|----7--9------------|
-------------------|-6---------9-------|-6---7--9--9-------|-4---7--9--7-------|-----7--9----------|
Pre ending
-----------------4---------------|---5-4-5-7-5-4-5---5-7-5-4-5-4---|-6-----------------------------4-|---------------------------------| x3---------------------------------|---------------------------------|
-----------------4----------------|---5-4-5-7-5-4-5---5-7-5-4-5-4----|-6-----------------------------4~-|----------------------------------|----------------------------------|----------------------------------|
Ending
---------------------|---------------------|---------6-4-4-------|--6-4-4-----------7--|------------------7--|------------------7--|
Tap to rate this tab
 
# A B C D E F G H I J K L M N O P Q R S T U V W X Y Z