Vader – Death In Silence tab

Death in Silence
By Vader
Album: The Art of War


Drop B

(0:00 - 0:07)|---------------------------------------------------------||---------------------------------------------------------||---------------------------------------------------------||---------------------------------------------------------||--4-5-4-2-1---2-4-5--7-5-2---4-5-4--------------2-5-4-2--||4--------------------------4-------9-8---5--4---2-5-4-2--|trem..........................................
(0:08 - 0:15)|-------------------------------------------------------------------||-------------------------------------------------------------------||-------------------------------------------------------------------||-------------------------------------------------------------------||--4-5-4-2-1---2-4-5--7-5-2---4-5-4-------5-7-8----5-7-8------------||4--------------------------4-------9-8---5-7-888885-7-88888--------|trem...................................... .... ....
(0:16 - 0:24)|------------------------------------------------------||------------------------------------------------------||------------------------------------------------------||------------------------------------------------------||--4-5-4-2-1---2-4-5--7-5-2---4-5-4--------------------||4--------------------------4-------9-8---5-4-2-4-5-2--|trem..................................................
(0:25 - 0:31)|--------------------------------------------------------||--------------------------------------------------------||--------------------------------------------------------||--------------------------------------------------------||--4-5-4-2-1---2-4-5--7-5-2---4-5-4----------------------||4--------------------------4-------9-8---5---2---4---5--|trem....................................................
(0:31 - 0:37)|---------------||---------------||---------------||---------------||------5-4-2-4--||4444445-4-2-4--|
|---------------||---------------||---------------||---------------||------5-4-2-5--||4444445-4-2-5--|
|-----------------||-----------------||-----------------||-----------------||------5-4-2-5-4--||4444445-4-2-5-4--|
(0:38 - 0:40)|-------------||-------------||-------------||-------------||-------------||5---7-8-7-5--|trem..........
(0:40 - 0:51)|------------------||------------------||------------------||------------------||------------------||4-----5-4--2---5--|trem..............
(0:52 - 0:55)|--------------||--------------||--------------||2----7-8-7-5--||2-------------||2-------------| t........
(0:56 - 1:04)|------------------------------------------------------||------------------------------------------------------||------------------------------------------------------||------------------------------------------------------||--4-5-4-2-1---2-4-5--7-5-2---4-5-4--------------------||4--------------------------4-------9-8---5-4-2-4-5-2--|trem..................................................
(1:05 - 1:12)|--------------------------------------------------------||--------------------------------------------------------||--------------------------------------------------------||--------------------------------------------------------||--4-5-4-2-1---2-4-5--7-5-2---4-5-4----------------------||4--------------------------4-------9-8---5---2---4---5--|trem....................................................
(1:12 - 1:18)|---------------||---------------||---------------||---------------||------5-4-2-4--||4444445-4-2-4--|
|---------------||---------------||---------------||---------------||------5-4-2-5--||4444445-4-2-5--|
|-----------------||-----------------||-----------------||-----------------||------5-4-2-5-4--||4444445-4-2-5-4--|
(1:18 - 1:20)|--------------||--------------||--------------||5-------------||5-------------||5----7-8-7-5--| t.......
(1:20 - 1:34)|------------------||------------------||------------------||------------------||------------------||4-----5-4--2---5--|trem..............
(1:35 - 1:36)|-----------||-----------||-----------||5----------||5----7--8--||5----------| t....
(1:37 - 1:44)|------------------------------------------------------||------------------------------------------------------||------------------------------------------------------||------------------------------------------------------||--4-5-4-2-1---2-4-5--7-5-2---4-5-4--------------------||4--------------------------4-------9-8---5-4-2-4-5-2--|trem..................................................
(1:45 - 1:53)|--------------------------------------------------------||--------------------------------------------------------||--------------------------------------------------------||--------------------------------------------------------||--4-5-4-2-1---2-4-5--7-5-2---4-5-4----------------------||4--------------------------4-------9-8---5---2---4---5--|trem....................................................
(1:53 - 1:57)|------------------------------------------------------||------------------------------------------------------||------------------------------------------------------||------------------------------------------------------||------------------------------------------------------||44--444--444--4-5-2-4-5--44--444--4-5-2-4-5-7-8-7-10--|
(1:57 - 2:01)|------------------------------------------||------------------------------------------||------------------------------------------||------------------------------------------||--------------------------------7-9-10-7--||44--444-444--4-5-2-4-5--44-444------------| t.........
(2:01 - 2:05)|------------------------------------------------------||------------------------------------------------------||------------------------------------------------------||------------------------------------------------------||------------------------------------------------------||44--444--444--4-5-2-4-5--44--444--4-5-2-4-5-7-8-7-10--|
(2:05 - 2:11) DEATH.|---------------------------------------------------||---------------------------------------------------||---------------------------------------------------||---------------------------------------------------||-------------------------4-5--5/8--5/8--5-4-2-5-4--||44--444--444--4-5-2-4-5--4-5--5/8--5/8--5-4-2-5-4--|
END OF SONG Have any corrections email them to me at blackwood_Evan@yahoo.com Keep if Metal
Please rate this tab:
x1.0