Vader – Sothis tab

SOTHIS - Vader - De Profundis
Version 2.0 March 2001 

Transcribed by some random European guy on the net
Corrected by Lalith Vipulananthan (lalithv@uk2.net)

Tuning (low to high) - D G C F

A1 Play 4 times|-------------------------------------------||-------------------------------------------| |-5\4------------------6\5------------------| |-3\2-0-1-2-1-00000000-4\3-0-1-3-1-00000000-| . . . . . . . .
A2|----------------------------------------------------------||----------------------------------------------------------| |-5\4------------------4-5-7----------5-4-5----------5-4-3-| |-3\2-0-1-2-1-00000000-2-3-5-00000000-3-2-3-00000000-3-2-1-| | . . . . . . .
|
|----------------------------------------------------------||----------------------------------------------------------||-5\4---3-4-3----------4-5-7----------5-4-5----------5-4-3-||-3\2---1-2-1----------2-3-5----------3-2-3----------3-2-1-| . . . . . .
A3 Play 4 times|-------------------------------------------------------||-------------------------------------------------------||----------------5\4------------------------6\5---------||-00-0-00-0-00-0-3\2-0-1-2-1-00-0-00-0-00-0-4\3-0-1-2-3-| .. . .. . .. . . . . . .. . .. . .. . . . . .
B1 Play 4 times|-----------------------------||-----------------------------||-----------------------------||-00-0-33-3-22-2-11-1-3-2-1-0-| .. . .. . .. . .. . . . . .
Play B2 x 8 with B2' (each bar/section of B2' = B2 x 1)
B2 (note slight rhythm change)|------------------------------||------------------------------||------------------------------||-00-0-33-3-22-2-11-1-33-3-2-1-| .. . .. . .. . .. . .. . . .
B2'|------|------|------|-------|------|------|------|------||------|-4----|-5----|-------|---slow dive w/bar--|------||-2----|-2----|-3----|-6--3--|-2\---|-(2)\-|-(2)\-|-(2)\-||-0----|------|------|-4--1--|-0\---|-(0)\-|-(0)\-|-(0)\-|
Fill 1|--------------||--------------||------5---4/5-||-00-0-3-0-2/3-| . .
Pause
C1|-------------------------------------------------||-------------------------------------------------||-------------22222-2-5-3-------------33333-3-2-0-||-11111-2-1-2-------------11111-2-1-2-------------|| . . . . . . . . . . . .
|
|-------------------------------------------------||-------------------------------------------5-4-2-||-------------------------------------------3-2-0-||-------------------------------------------------|
. . .C2|-------------------------------------------------||-------------------------------------------------||-------------22222-2-5-3-------3-2-0-00000-------||-11111-2-1-2-------------11111-------------3-2-1-|| . . . . . . . . . . . .
|
|-------------------------------------------------||-------------------4-7-5-------5-4-2-------------||-------------------2-5-3-------3-2-0-------5-4-3-||-------------------------------------------3-2-1-| . . . . . . . . .
Repeat C1 (both guitars) x 3
Fill 2|-------------------------------------------------||-------------------------------------------------||-------------22222-2-5-3-------3-2-0-33333-------||-11111-2-1-2-------------11111-------------3-2-1-|| . . . . . . . . . . . .
|
|-------------------------------------------------||-------------------------------5-4-2-------------||-------------22222-2-5-3-------3-2-0-------5-4-3-||-11111-2-1-2-------------11111-------------3-2-1-| . . . . . . . . . . . .
D [1-7,9-15] [8] |-------------|-------------||-------------|-------------||-------------|-------------||-00000-3-2-1-|-11111-4-3-2-| . . . . . .
D' (overdub played over bar [9])|-15b(17)~~~~~--------||---------------------||---------------------||---------------------||---------------------||---------------------|
(overdub)|-----------||------9----||-8---------||-----------|
| (guitars 1+2)|-----------||------4----||-3----2----||-1---------|
E1 Play 2 times|------------------------------Ah---||-6----(6)----(6)----(6)-------9----||-------------------------8---------||-----------------------------------|
|
|-----------------------------------||------------------------------4----||-------------------------3----2----||-4-4-4-4-4-4-4-4-4-4-4-4-1---------|
E2|-----------------------------------||-6----(6)----3----(3)----2---------||-----------------------------------||-----------------------------------|
|
|-----------------------------------||-----------------------------------||-------------------------2---------||-4-4-4-4-4-4-1-1-1-1-1-1-0---------|
F1 (gtr 1 while gtr 2 holds D chord)|-----------------------||-----------------------||-----111122222---------||-0000---------33221122-|
|-----------------------||-----------------------||-----111122222---------||-0000----------3-2-1-2-|
| . . . .|-----------------------||-----------------------||---------------5-4-3-4-||---------------3-2-1-2-|
. . . .F2|-----------------------||-----------------------||-----111122222-5-4-3-4-||-0000----------3-2-1-2-|
| . . . .|-----------------------||-----3---4-------------||-2---1---2-----5-4-3-4-||-0-------------3-2-1-2-| . . . . . . .
(both guitars)|-----------------------||-----3---4-------------||-2---1---2-----5-4-3-4-||-0-------------3-2-1-2-| . . . . . . .
Repeat F1 x 4
G1 Play twice|-----------------------||-----------------------||-----------------------||-111111-2-3-111111-2-0-| . . . .
G2(under solo 1) Play 4 times |---------------||---------------||-0000000223355-||---------------|
Repeat G1 x 2, G2 x 2 (under solo 2) Repeat F2 x 2, F1 x 4
H1 Play twice|-----------------------------||---------------6------6------||---------------4------4------||-3-3-3-3-3-3-3----3-3----3-3-|
H2 Play 4 times|--------------||--------------||--------------||-777777881010-|
Repeat H1 x 2
Fill 3|-------------------------------------------------------||-------------------------------------------------------||----------------5\4------------------------6\5---------||-00-0-00-0-00-0-3\2-0-1-2-1-00-0-00-0-00-0-4\3-0-1-2-3-|| .. . .. . .. . . . . . .. . .. . .. . . . . .
|
|-------------------------------------------------------||--slow dive w/bar--------------------------------------||-2\\\\\\\\\\\\\\\-----3-4-3----------------------3-4-5-||-0\\\\\\\\\\\\\\\-----1-2-1----------------------1-2-3-| . . .
Repeat A3 x 3
I|--Ah----------Ah------------------------------|*note sounds over A3|--9~---10-9-7-10~-12-10-9-10-9-7-9------*Ah---| |-----------------------------------10-9--7~~~-||----------------------------------------------|
|
|----------------------------------------||-------5--4-2-----7--5--4---------------||-------3--2-0-----5--3--2--------5-4--3-||---------------------------------3-2--1-| . . . . . . . . .
Repeat A3, I, A3, I, A3 Repeat B2 x 8, Fill 1 The End!
Please rate this tab:
x1.0