Vader – Black To The Blind tab

vader

black to the blind

Tune down

F||------------------|------------------|------------------|C||------------------|------------------|------------------|G||------------------|------------------|------------------|D||------------------|------------------|------------------|
--------------------|----------------------------------|--------------------|----------------------------------|-----------5--------|------------------4-5-4---3-3-3-3-|--2-----------------|--2-2-2-2-2-2-4-5-------5---------|
----------------------------------|----------------------------------|----------------------------------|----------------------------------|------------------4-5-4---4h5h4h5-|------------------4-5-4---3-3-3-3-|--2-2-2-2-2-2-4-5-------5---------|--2-2-2-2-2-2-4-5-------5---------|
----------------------------------|----------------------------------|----------------------------------|----------------------------------|------------------4-5-4---5-7-5-4-|------------------4-5-4---3-3-3-3-|--2-2-2-2-2-2-4-5-------5---------|--2-2-2-2-2-2-4-5-------5---------|
----------------------------------|----------------------------------|----------------------------------|----------------------------------|------------------4-5-4---4h5h4h5-|------------------4-5-4---4-5-4---|--2-2-2-2-2-2-4-5-------5---------|--2-2-2-2-2-2-4-5-------5-------5-|
---------------------|----------------------------------|---------------------|----------------------------------|---------------------|----------------------------------|--3--------4/3-------|--3-2-2-2-2-2-3-2-0-0-0-0-4-3-3-3-|
----------------------------------|----------------------------------|----------------------------------|----------------------------------|----------------------------------|----------------------------------|--3-3-3-2-2-2-3-2-0-0-0-0-0-0-2-3-|--3-2-2-2-2-2-3-2-0-0-0-0-4-3-3-3-|
----------------------------------|----------------------------------|----------------------------------|----------------------------------|----------------------------------|----------------------------------|--3-3-3-2-2-2-3-2-0-0-0-0-0-0-2-3-|--3-2-2-2-2-2-3-2-0-0-0-0-4-3-3-3-|
----------------------------------|----------------------------------|----------------------------------|----------------------------------|----------------------------------|----------------------------------|--3-3-3-2-2-2-3-2-0-0-0-0-0-0-2-3-|--3-2-2-2-2-2-3-2-0-0-0-0-4-3-3-3-|
----------------------------------|----------------------|----------------------------------|----------------------|----------------------------------|----------------------|--3-3-3-2-2-2-3-2-0-0-0-0-0-0-2-3-|----------1--1--3--4--|
----------------------------------|--------------------------------|----------------------------------|--------------------------------|----------------------------------|----------3--0--2-2-2-2-2-2-2-2-|--0-0-0-0-0-0-0-0-3-3-3-3-3-3-3-3-|--3-3-3-3-----------------------|
--------------------------------|----------------------------------|--------------------------------|----------------------------------|------------------2--0--1-1-1-1-|--1-1-1-1-1-1-1-1-3-3-3-3-3-3-3-3-|--0-0-0-0-0-0-3-3---------------|----------------------------------|
----------------------------------|--------------------------------|----------------------------------|--------------------------------|----------------------------------|----------3--0--2-2-2-2-2-2-2-2-|--0-0-0-0-0-0-0-0-3-3-3-3-3-3-3-3-|--3-3-3-3-----------------------|
--------------------------------|----------------------------------|--------------------------------|----------------------------------|------------------2--0--1-1-1-1-|--1-1-1-1-1-1-1-1-0-0-0-0-0-0-0-0-|--0-0-0-0-0-0-3-3---------------|----------------------------------|
----------------------------------|----------------------------------|----------------------------------|----------------------------------|--3-3-3-3-3-3-3-3-2-2-2-2-2-2-----|----------------------------------|------------------------------4-3-|--0-0-0-0-0-0-0-0-0-0-0-0-0-0-0-0-|
----------------------------------|----------------------------------|----------------------------------|----------------------------------|--2-2-2-2-2-2-2-2-1-1-1-1-1-1-----|----------------------------------|------------------------------3-2-|--1-1-1-1-1-1-1-1-1-1-1-1-1-1-1-1-|
----------------------------------|----------------------------------|----------------------------------|----------------------------------|--3-3-3-3-3-3-3-3-2-2-2-2-2-2-----|----------------------------------|------------------------------4-3-|--0-0-0-0-0-0-0-0-0-0-0-0-0-0-0-0-|
----------------------------------|--------------------------------|----------------------------------|--------------------------------|--2-2-2-2-2-2-2-2-1-1-1-1---------|--1-1-1-1-1-1-1-1-2-2-2-2-------|--------------------------3-3-2-2-|--------------------------3--2--|
----------------------------------|----------------------------------|----------------------------------|----------------------------------|--------------------------2-2-3-3-|--1-1-1-1-1-1-1-1-1-1-1-1-1-1-2-2-|--0-0-0-0-0-0-0-0-0-0-0-0---------|----------------------------------|
----------------------------------|--------------------------|----------------------------------|--------2--3--------2--3--|--0-0-0-0-0-0-0-0-0-0-0-0-0-0-3-2-|--1--1--------1--1--------|----------------------------------|--------------------------|
----------------------------------|--------------------------------|----------------------------------|--------------------------------|----------------------------------|----------3--0--2-2-2-2-2-2-2-2-|--0-0-0-0-0-0-0-0-3-3-3-3-3-3-3-3-|--3-3-3-3-----------------------|
--------------------------------|----------------------------------|--------------------------------|----------------------------------|------------------2--0--1-1-1-1-|--1-1-1-1-1-1-1-1-3-3-3-3-3-3-3-3-|--0-0-0-0-0-0-3-3---------------|----------------------------------|
----------------------------------|--------------------------------|----------------------------------|--------------------------------|----------------------------------|----------3--0--2-2-2-2-2-2-2-2-|--0-0-0-0-0-0-0-0-3-3-3-3-3-3-3-3-|--3-3-3-3-----------------------|
--------------------------------|----------------------------------|--------------------------------|----------------------------------|------------------2--0--1-1-1-1-|--1-1-1-1-1-1-1-1-0-0-0-0-0-0-0-0-|--0-0-0-0-0-0-3-3---------------|----------------------------------|
----------------------------------|----------------------------------|----------------------------------|----------------------------------|--3-3-3-3-3-3-3-3-2-2-2-2-2-2-----|----------------------------------|------------------------------4-3-|--0-0-0-0-0-0-0-0-0-0-0-0-0-0-0-0-|
----------------------------------|----------------------------------|----------------------------------|----------------------------------|--2-2-2-2-2-2-2-2-1-1-1-1-1-1-----|----------------------------------|------------------------------3-2-|--1-1-1-1-1-1-1-1-1-1-1-1-1-1-1-1-|
----------------------------------|----------------------------------|----------------------------------|----------------------------------|--3-3-3-3-3-3-3-3-2-2-2-2-2-2-----|----------------------------------|------------------------------4-3-|--0-0-0-0-0-0-0-0-0-0-0-0-0-0-0-0-|
----------------------------------|--------------------------|----------------------------------|--------------------------|--2-2-2-2-2-2-2-2-1-1-1-1---------|--1-1-1-1-1-1-1-1---------|--------------------------3-3-2-2-|--------------------------|
----------------------------------|----------------------------------|----------------------------------|----------------------------------|----------------------------------|----------------------------------|--4-4-4-4-4-4-4-4-4-4-4-4-4-4-4-4-|--5-5-5-5-5-5-5-5-5-5-5-5-5-5-5-5-|
----------------------------------|----------------------------------|----------------------------------|----------------------------------|----------------------------------|--5-5-5-5-5-5-5-5-5-5-5-5-5-5-5-5-|--4-4-4-4-4-4-4-4-4-4-4-4-4-4-4-4-|----------------------------------|
----------------------------------|----------------------------------|----------------------------------|----------------------------------|----------------------------------|----------------------------------|--4-4-4-4-4-4-4-4-4-4-4-4-4-4-4-4-|--5-5-5-5-5-5-5-5-5-5-5-5-5-5-5-5-|
----------------------------------|---------------------------|----------------------------------|---------------------------|----------------------------------|---------------------------|--4-4-4-4-4-4-4-4-4-4-4-4-4-4-4-4-|--3-3-3-3-3-3-3-3-2--------|
----------------------------------|----------------------------------|----------------------------------|----------------------------------|----------------------------------|----------------------------------|--0-0-0-0-3-2-0-0-0-0-3-0-1-1-4-3-|--0-0-0-0-3-2-0-0-0-0-3-0-1-1-1-1-|
----------------------------------|----------------------------------|----------------------------------|----------------------------------|----------------------------------|----------------------------------|--0-0-0-0-3-2-0-0-0-0-3-0-1-1-4-3-|--0-0-0-0-3-2-0-0-0-0-3-0-1-1-1-1-|
----------------------------------|----------------------------------|----------------------------------|----------------------------------|----------------------------------|----------------------------------|--0-0-0-0-3-2-0-0-0-0-3-0-1-1-4-3-|--0-0-0-0-3-2-0-0-0-0-3-0-1-1-1-1-|
----------------------------------|---------------------------|----------------------------------|---------------------------|----------------------------------|---------------------------|--0-0-0-0-3-2-0-0-0-0-3-0-1-1-4-3-|--0-0-0-0-3-2-0-0-1--------|
--------------------------------|----------------------------------|--------------------------------|----------------------------------|--------------------------------|----------------------------------|--3-2-0-0-0-0-3-2-1-1-1-1-1--2--|--0-0-0-0-0-0-0-0-0-0-0-0-0-0-0-0-|
--------------------------------|----------------------------------|--------------------------------|----------------------------------|--------------------------------|----------------------------------|--3-2-0-0-0-0-3-2-1-1-1-1-2--1--|--0-0-0-0-0-0-0-0-0-0-0-0-0-0-0-0-|
--------------------------------|----------------------------------|--------------------------------|----------------------------------|--------------------------------|----------------------------------|--3-2-0-0-0-0-3-2-1-1-1-1-1--2--|--0-0-0-0-0-0-0-0-0-0-0-0-0-0-0-0-|
--------------------------------|----------------------------------|--------------------------------|----------------------------------|--------------------------------|----------------------------------|--3-2-0-0-0-0-3-2-1-1-1-1-2--1--|--0-0-0-0-0-0-0-0-0-0-0-0-0-0-0-0-|
----------------------------------|------------------------------|----------------------------------|------------------------------|----------------------------------|------4--0-0-0-0-3--0-0-3--2--|--3-3-3-3-3-3-3-3-3-3-3-3-3-3-3-3-|--3-3-------------------------|
----------------------------------|------------------------------|----------------------------------|------------------------------|----------------------------------|------4--0-0-0-0-3--0-0-3--2--|--3-3-3-3-3-3-3-3-3-3-3-3-3-3-3-3-|--3-3-------------------------|
----------------------------------|------------------------------|----------------------------------|------------------------------|----------------------------------|------4--0-0-0-0-3--0-0-3--2--|--3-3-3-3-3-3-3-3-3-3-3-3-3-3-3-3-|--3-3-------------------------|
----------------------------------|----------------------------------|----------------------------------|----------------------------------|----------------------------------|----------------------------------|--3-3-3-3-3-3-3-3-3-3-3-3-3-3-3-3-|--2-2-2-2-2-2-2-2-2-2-2-2-2-2-2-2-|
----------------|----------------|----------------|----------------|----------------|----------------|----------------|----------------|----------------|----------------|----------------|----------------|--0-0-----------|--0-0-----------|--0-0-----------|--0-0-----------|
--------------------------|--------------------------|--------------------------|--------------------------|------------------2-3-2---|----------------2-3-2-----|--0-0-0-0-2-0-2-3-------3-|--0-0-0-0-2-0-3-------3-2-|
--------------------------|--------------------------|--------------------------|--------------------------|------------------2-3-2---|----------------2-3-2-----|--0-0-0-0-2-0-2-3-------3-|--0-0-0-0-2-0-3-------3-2-|
--------------------------|--------------------------|--------------------------|--------------------------|------------------2-3-2---|----------------2-3-2-----|--0-0-0-0-2-0-2-3-------3-|--0-0-0-0-2-0-3-------3-2-|
--------------------------|--------------------------|-------------------|--------------------------|--------------------------|-------------------|------------------2-3-2---|----------------2-3-2-----|-------------------|--0-0-0-0-2-0-2-3-------3-|--0-0-0-0-2-0-3-------3-2-|--1----------------|
--------------------------------|----------------------------------|--------------------------------|----------------------------------|--------------------------------|----------------------------------|--3-2-0-0-0-0-3-2-1-1-1-1-1--2--|--0-0-0-0-0-0-0-0-0-0-0-0-0-0-0-0-|
--------------------------------|----------------------------------|--------------------------------|----------------------------------|--------------------------------|----------------------------------|--3-2-0-0-0-0-3-2-1-1-1-1-2--1--|--0-0-0-0-0-0-0-0-0-0-0-0-0-0-0-0-|
--------------------------------|----------------------------------|--------------------------------|----------------------------------|--------------------------------|----------------------------------|--3-2-0-0-0-0-3-2-1-1-1-1-1--2--|--0-0-0-0-0-0-0-0-0-0-0-0-0-0-0-0-|
--------------------------------|----------------------------------|--------------------------------|----------------------------------|--------------------------------|----------------------------------|--3-2-0-0-0-0-3-2-1-1-1-1-2--1--|--0-0-0-0-0-0-0-0-0-0-0-0-0-0-0-0-|
----------------------------------|--------------------------------|----------------------------------|--------------------------------|----------------------------------|--------------------------------|--2-2-2-2-2-2-2-2-2-2-2-2-2-2-2-2-|--2-2-2-2-2-2-2-2-2-2-3--2-2-3--|
----------------------------------|------------------------------|----------------------------------|------------------------------|----------------------------------|------------------------------|--2-2-2-2-2-2-2-2-2-2-2-2-2-2-2-2-|--2-2-2-2-2-2-2-2-0--2--1--3--|
----------------------------------|----------------------------------|----------------------------------|----------------------------------|----------------------------------|--1-1-1-1-1-1-1-1-1-1-1-1-1-1-1-1-|--0-0-0-0-0-0-0-0-0-0-0-0-0-0-0-0-|----------------------------------|
----------------------------------|----------------------------------|----------------------------------|----------------------------------|----------------------------------|----------------------------------|--0-0-0-0-0-0-0-0-0-0-0-0-0-0-0-0-|--1-1-1-1-1-1-1-1-1-1-1-1-3-3-4-4-|
----------------------------------|----------------------------------|----------------------------------|----------------------------------|----------------------------------|--1-1-1-1-1-1-1-1-1-1-1-1-1-1-1-1-|--0-0-0-0-0-0-0-0-0-0-0-0-0-0-0-0-|----------------------------------|
----------------------------------|---------------|----------------------------------|---------------|----------------------------------|---------------|--0-0-0-0-0-0-0-0-0-0-0-0-0-0-0-0-|--1--1--1--3-4-|
----------------------------------|--------------------------------|----------------------------------|--------------------------------|----------------------------------|----------3--0--2-2-2-2-2-2-2-2-|--0-0-0-0-0-0-0-0-3-3-3-3-3-3-3-3-|--3-3-3-3-----------------------|
--------------------------------|----------------------------------|--------------------------------|----------------------------------|------------------2--0--1-1-1-1-|--1-1-1-1-1-1-1-1-3-3-3-3-3-3-3-3-|--0-0-0-0-0-0-3-3---------------|----------------------------------|
----------------------------------|--------------------------------|----------------------------------|--------------------------------|----------------------------------|----------3--0--2-2-2-2-2-2-2-2-|--0-0-0-0-0-0-0-0-3-3-3-3-3-3-3-3-|--3-3-3-3-----------------------|
--------------------------------|----------------------------------|--------------------------------|----------------------------------|------------------2--0--1-1-1-1-|--1-1-1-1-1-1-1-1-0-0-0-0-0-0-0-0-|--0-0-0-0-0-0-3-3---------------|----------------------------------|
----------------------------------|----------------------------------|----------------------------------|----------------------------------|--3-3-3-3-3-3-3-3-2-2-2-2-2-2-----|----------------------------------|------------------------------4-3-|--0-0-0-0-0-0-0-0-0-0-0-0-0-0-0-0-|
----------------------------------|----------------------------------|----------------------------------|----------------------------------|--2-2-2-2-2-2-2-2-1-1-1-1-1-1-----|----------------------------------|------------------------------3-2-|--1-1-1-1-1-1-1-1-1-1-1-1-1-1-1-1-|
----------------------------------|----------------------------------|----------------------------------|----------------------------------|--3-3-3-3-3-3-3-3-2-2-2-2-2-2-----|----------------------------------|------------------------------4-3-|--0-0-0-0-0-0-0-0-0-0-0-0-0-0-0-0-|
----------------------------------|-----------------------------|----------------------------------|-----------------------------|--2-2-2-2-2-2-2-2-1-1-1-1-1-1-----|--1-1-1-1-1-1-1-1-3----------|------------------------------3-2-|-----------------------3--2--|
-------------------||-------------------||-------------------||--0----------------||
tabbed by Taz Mckell
Please rate this tab:
x1.0