Van Halen - Dont Tell Me tab

Van Halen - Dont Tell Me ( What Love Can Do)
Tabbed By: imthebeststd
EMail: bighabit69@iamwasted.com


dont tell me (what love can do) by VAN HALEN

tabbed by BIGHABIT69@IAMWASTED.COM (silkmoth)
This is one of my favorite songs yayay! 

   Intro

Gtr I PM--------------------------------------------------|||------------------|------------------||-----------------|||o-----------------|-----------------o||-----------------|||------------------|------------------||-----------------|||------------------|------------------||-----------------|||o-----------------|-----------------o||-----------------|||--4-4-4-4-4-4-4-4-|-4-0-0-0-0-0-2-2--||-4-0-0-0-0-0-2-2-|
verse 1 PM------------------------------|
4x||------------------|------------------||-2--x-2----2-2-|||o-----------------|-----------------o||-2--x-2----2-2-|||------------------|------------------||---------------|||------------------|------------------||-4----4----4-4-|||o-----------------|-----------------o||-4----4--x-4-4-|||--4-4-4-4-4-4-4-4-|-4-0-0-0-0-0-2-2--||---------------|
PM-| PM-||-------------------------|-----x-2---x-2-2-|-----------------||-----------3---------3-3-|-------2---x-2-2-|-3---------------||-2---------2---------2-2-|-----------------|-2-x-x-----------||-0-<4>-<4>-0-<4>-<4>-0-0-|-4-x---4-----4-4-|-0-x-x-x-2-2-----||-------------------------|-4-x---4-----4-4-|-------x-0-0-2-2-||-------------------------|---------x-------|-------------2-2-|
PM|-2---x-2-----2-2-|------------------|----x-2-x-x-2-2-|---0-0-0-0-0-0---||-2-----2-----2-2-|-3------3-x-x-3-3-|-2----2-x-x-2-2-|---0-0-0-0-0-0---||-----------------|-2------2-x-x-2-2-|-2----2-----2-2-|---2-2-2-2-2-2---||-4-----4---x-4-4-|-0--<4>-0-----0-0-|-4----4-----4-4-|---2-2-2-2-2-2-0-||-4-x---4-x-x-4-4-|------------------|-4----4-----4-4-|-----------------||-----------------|------------------|----------------|-2---------------|
chorus1|------------|-------3-(3)-2h3p2p0---|--------------||-3----------|---------------------3-|--------------||-2----------|-----------------------|-2--------2-2-||-0----------|-----------------------|-2--------2-2-||-----0-0----|--0--------------------|-0---0-0--0-0-||-----0-0----|--0--------------------|--------------|
|
| Gtr II|------------|-----------------------|--------------||------------|-----------------------|--------------||-7----------|-(7)-------------------|-2------------||-7----------|-(7)-------------------|-2------------||-5----------|-(5)-------------------|-0------------||------------|-----------------------|--------------|
T T T T T T T|--------------------------------------------||--------------------------------------------||----------------2(14)-2(14)-------------x-x-||----2(14)-2(14)-------------2(14)-2(14)-x-x-||-12-----------------------------------------||--------------------------------------------|
|
|--------------------------------------------||--------------------------------------------||--------------------------------------------||--------------------------------------------||--------------------------------------------||--------------------------------------------|
|--------------|-----5-(5)-3h5p3s2---||-3------------|-------------------3-||-2------------|---------------------||-0------------|---------------------||-----0-(0)----|-0-------------------||-----0-(0)----|-0-------------------|
|
|--------------|---------------------||--------------|---------------------||-7------------|---------------------||-7------------|---------------------||-5------------|---------------------||--------------|---------------------|
|-------------------|-0----------------||-----------------x-|---0--------------||-2--------2----x---|------------------||-2--------2--x-----|------------------||-0----(0)-0--------|------0--(0)--(0)-||-------------------|------------------|
|
|-------------------|-0----------------||-------------------|-0----------------||-2-----------------|-2----------------||-2-----------------|-2----------------||-0-----------------|-0----------------||-------------------|------------------|
Verse 2 PM----------||-----------2---0-|----------------||-------2-----2---|-3--------------||-----2---2-------|---2------------||---4-------------|------4-0-------||-4---------------|----------0-2-4-||-----------------|----------------|
PM----------| PM-----------||-----------2---0-|-(0)---------------|-------------2---0-|----------------||-------2-----2---|-----3-------------|---------2-----2---|-3--------------||---2-----2-------|-------2-----------|-----2-----2-------|---2------------||-4---4-----------|---------4-0-------|-(4)---4-----------|------4-0-------||-----------------|-------------0-2-4-|-------------------|----------0-2-4-||-----------------|-------------------|-------------------|----------------|
PM-----------||-------------2---0-|-(0)---------------|-2--x-2----2-2-||---------2-----2---|-----3-------------|-2--x-2----2-2-||-----2-----2-------|-------2-----------|---------------||-(4)---4-----------|---------4-0-------|-4----4----4-4-||-------------------|-------------0-2-4-|-4----4--x-4-4-||-------------------|-------------------|---------------|
PM-| PM-||-------------------------|-----x-2---x-2-2-|-----------------||-----------3---------3-3-|-------2---x-2-2-|-3---------------||-2---------2---------2-2-|-----------------|-2-x-x-----------||-0-<4>-<4>-0-<4>-<4>-0-0-|-4-x---4-----4-4-|-0-x-x-x-2-2-----||-------------------------|-4-x---4-----4-4-|-------x-0-0-2-2-||-------------------------|---------x-------|-------------2-2-|
PM|-2---x-2-----2-2-|------------------|----x-2-x-x-2-2-|----0-0--0-0--0-0----||-2-----2-----2-2-|-3------3-x-x-3-3-|-2----2-x-x-2-2-|----0-0--0-0--0-0----||-----------------|-2------2-x-x-2-2-|-2----2-----2-2-|----2-2--2-2--2-2----||-4-----4---x-4-4-|-0--<4>-0-----0-0-|-4----4-----4-4-|----2-2--2-2--2-2--0-||-4-x---4-x-x-4-4-|------------------|-4----4-----4-4-|---------------------||-----------------|------------------|----------------|-2-------------------|
|
| Gtr II|-----------------|------------------|----------------|---------------------||-----------------|------------------|----------------|---------------------||-----------------|------------------|----------------|---------------------||-----------------|------------------|----------------|---------------------||-----------------|------------------|----------------|---------------------||-----------------|------------------|----------------|-x\---x\---x\---x\---|
Chorus 2|---------------|-----------------------------||---------------|-----------------------------||-7-----------7-|-7s11-11s14-14s=19-----19-19-||---------------|-----------------------------||-5-----------5-|-5s=9--9s12-12s=17-----17-17-||---------------|-----------------------------|
|
|---------------|----------3-(3)--2h3p2p=0----||-3-------------|---------------------------3-||-2-------------|-----------------------------||-0-------------|-----------------------------||-----0-(0)-----|-0---------------------------||-----0-(0)-----|-0---------------------------|
T T T T|-------------|---------------------------------||-------------|---------------------------------||-21----------|-----2(14)-2(14)-2(9)-2(9)-------||-------------|---------------------------------||-19---0-0----|-(0)-----------------------------||-------------|---------------------------------|
|
|-------------|---------------------------------||-------------|---------------------------------||--2----------|-----2b4---------0-------------x-||--2----------|--2----------------------------x-||--0----------|----------------------0----0-0---||-------------|---------------------------------|
|-------------|-----------------------------||-------------|-----------------------------||-7---------7-|-7s11-11s14-14s=16s====14-14-||-------------|-----------------------------||-5---------5-|-5s=9--9s12-12s=14s====12-12-||-------------|-----------------------------|
|
|-------------|----------5-(5)--3h5p3s=2----||-3-----------|---------------------------3-||-2-----------|-----------------------------||-0-----------|-----------------------------||-------------|-0---------------------------||-----0-0-----|-0---------------------------|
~~~~~~~|--------------------|-----------------------------||--------------------|-----------------------------||-(14)------14s19s18-|-(18)--14s16s=14-(14)--14s16-||--------------------|-----------------------------||-(12)------12s17s16-|-(16)--12s14s=12-(12)--12s14-||--------------------|-----------------------------|
|
| \7_________________| TP TP|--------------------|-----------------------------||--------------------|-----------------------------||---2----------------|-----------------------------||---2----------------|-----------------------------||---0--------------0-|--(0)-----<7>----------------||--------------------|-----------------------------|
Interlude1|---------------|----------------------||---------------|----------------------||-(16)----------|-(16)-----6-(6)-7s6-4-||---------------|----------------------||-(14)----------|-(14)---xS4-(4)-5s4-2-||---------------|----------------------|
|
|---2-----------|----------------------||---2-----------|----------------------||---4-----------|----------------------||---4-----------|----------------------||---2-------2-2-|---2--2-2-2--2--2-2-2-||---------------|----------------------|
~~~~~~~~~~~|---------------------|-----------------------||---------------------|-----------------------||---------------------|-----[2]-----(2)-------||---------------------|-----------------------||-2h4p2-4-0--0--------|-(0)-------------------||---------------------|-----------------------|
|
|---------------------|-----------------------||---------------------|-----------------------||-2---------(2)-------|------2-------2----6-6-||-2---------(2)-------|------2-------2----6-6-||-0---------(0)-0-0-0-|--0---0--0-0--0----4-4-||---------------------|-----------------------|
~~~~~~~~~~~~~|----------------|-----------------|-0--------|-(0)----------------||----------------|-----------------|-0--------|-(0)----------------||----------------|-----------------|-5--------|-(5)----------------||----------------|-----------------|-5--------|-(5)----------------||-4--------(4)-4-|-(4)--4-4--------|-3--------|-(3)----------------||----------------|-----------------|----------|--------------------|
|
|-4----4-4-----4-|--4-------4------|-0--------|-(0)---2-----2------||-5----5-5-----5-|--5-----4-5-4----|-0--------|-(0)---2-2h3-2------||-6----6---------|--------------6--|-5--------|-(5)-----------4p2--||-6----6---------|-----------------|-5--------|-(5)----------------||-4----4---------|-----------------|-3--------|-(3)----------------||----------------|-----------------|----------|--------------------|
Guitar Solo1 ~ ~~~~~~~~ ~~~~~~|--------------|------------------------|------------------------||--------------|------------------------|------------------------||-2------4s6p4-|-(4)--4s2h4p2s1h2p1h2p1-|-(1)------------------2-||--------------|------------------------|-----2----------------2-||--------------|------------------------|-------4-(4)----4-0-----||--------------|------------------------|--------------------4---|
T|-----------------------------------------------|-----------------------0--h7-||-----------------------------2-----------------|-----------------------------||-(2)---------------------2---------4p2h4p2h4p2h|=4b6--(4)-9pb11r9-9b11-------||-(2)-4p2h4p2h4p2h4p2h4p2---4---4p2-------------|-----------------------------||-----------------------------------------------|-----------------------------||-----------------------------------------------|-----------------------------|
\1/ \1/ \1/ \1/ \1/ \1/ \1/ \1/ \1/ ~|-(7)--7p==5------------|-14-------14------------------------------------------------------------||-----------------17b19-|----17b19----17b19-(17)pb19r17p14-(14)--17---14-------------------------||-----------------------|--------------------------------------------------16---(16)--14---(14)--||-----------------------|------------------------------------------------------------------------||-----------------------|------------------------------------------------------------------------||---------------x-------|------------------------------------------------------------------------|
~~~~~~|--------------------------||--------------------------||-14\--4-2-4-4b6-2---------||------------------4-(4)---||--------------------------||--------------------------|
TP TP ~~~~~~~~~|-5--7--9-(9)s12-12-|-(12)----------------------9-10-12p10h12p10p||-------------------|------------------12-----x------------------||-2--4--6-(6)s=9--9-|--(9)-9\-2s16\----12---x--------------------||-------------------|---------------14----x----------------------||-------------------|--------------------------------------------||-------------------|--------------------------------------------|
|-9------2-(2)-------------------------2-5b7--||---10s3-2-(2)-[3]-4-3h5p3p2-----------2-5b7--||----------------------------4b6-(4)b6--------||---------------------------------------------||---------------------------------------------||---------------------------------------------|
~~~~~~~|-(5)b7-(5)b7-5----------------------||-(5)b7-(5)b7-5-5--------------------||-----------------4b6r=(4)-2h4p2h4p2h||------------------------------------||------------------------------------||------------------------------------|
~~~~~~|---------------------------------------------||-------------------------------------------x-||-4p2h4p2h4p2b4-(2)b4-----[4]b6-2---------x---||---------------------4-2---------4-(4)-x-----||---------------------------------------------||---------------------------------------------|
|-14-----------------17---------17----17----17-||----17b21==(17)b21=====17-(17)----17----17----||----------------------------------------------||----------------------------------------------||----------------------------------------------||----------------------------------------------|
~~~~~~|-----------------------------------------|----------------------||-17-(17)-17-(17)-17-(17)-17-(17)r17------|----------------------||------------------------------------14\--|-4b6-4-2--------------||-----------------------------------------|---------4-2-4-(4)----||-----------------------------------------|----------------------||-----------------------------------------|----------------------|
Verse 3 Q=112 4/4 Gtr I PM------------------------------|
4x||------------------|------------------||-2--x-2----2-2-|||o-----------------|-----------------o||-2--x-2----2-2-|||------------------|------------------||---------------|||------------------|------------------||-4----4----4-4-|||o-----------------|-----------------o||-4----4--x-4-4-|||--4-4-4-4-4-4-4-4-|-4-0-0-0-0-0-2-2--||---------------|
PM-| PM-||-------------------------|-----x-2---x-2-2-|-----------------||-----------3---------3-3-|-------2---x-2-2-|-3---------------||-2---------2---------2-2-|-----------------|-2-x-x-----------||-0-<4>-<4>-0-<4>-<4>-0-0-|-4-x---4-----4-4-|-0-x-x-x-2-2-----||-------------------------|-4-x---4-----4-4-|-------x-0-0-2-2-||-------------------------|---------x-------|-------------2-2-|
PM|-2---x-2-----2-2-|------------------|----x-2-x-x-2-2-|----0-0--0-0--0-0----||-2-----2-----2-2-|-3------3-x-x-3-3-|-2----2-x-x-2-2-|----0-0--0-0--0-0----||-----------------|-2------2-x-x-2-2-|-2----2-----2-2-|----2-2--2-2--2-2----||-4-----4---x-4-4-|-0--<4>-0-----0-0-|-4----4-----4-4-|----2-2--2-2--2-2--0-||-4-x---4-x-x-4-4-|------------------|-4----4-----4-4-|---------------------||-----------------|------------------|----------------|-2-------------------|
|
| Gtr II|-----------------|------------------|----------------|---------------------||-----------------|------------------|----------------|---------------------||-----------------|------------------|----------------|---------------------||-----------------|------------------|----------------|---------------------||-----------------|------------------|----------------|---------------------||-----------------|------------------|----------------|-x\---x\---x\---x\---|
Chorus 3|-------------|-------------------------------|-------||-------------|-------------------------------|-------||-7-------7-7-|--7s=11-11s14-14s=19-----19s21-|-21----||-------------|-------------------------------|-------||-5-------5-5-|--5s==9--9s12-12s=17-----17s19-|-19----||-------------|-------------------------------|-------|
|
|-------------|------------3-(3)--2h3p2p=0----|-------||-------------|-----------------------------3-|-------||-------------|-------------------------------|-------||-------------|-------------------------------|-------||-0-----------|-(0)---------------------------|--0----||-0-----------|-(0)---------------------------|-------|
|------------------|---------------|------------------------------||------------------|---------------|------------------------------||-21---------------|-7---------7-7-|--7s=11-11s14-14s=16s====14---||------------------|---------------|------------------------------||-19----x\-x\--x\--|-5---------5-5-|--5s==9--9s12-12s=14s====12---||------------------|---------------|------------------------------|
|
|--0---------------|---------------|------------5-(5)--3h5p3s=2---||----0-----0-------|-3-------------|----------------------------3-||------------------|-2-------------|------------------------------||------------------|-0-------------|------------------------------||--0---------------|-----0-0-------|-(0)--------------------------||------------------|-----0-0-------|-(0)--------------------------|
|
| Gtr III|------------------|---------------|------------------------------||------------------|---------------|------------------------------||------------------|---------------|------------------------------||------------------|---------------|------------------------------||--0---------------|---------------|------------------------------||------------------|---------------|------------------------------|
TP|-----------|---------------------|------------||-----------|---------------------|------------||-14--------|-------------------x-|-7----------||-----------|-------------------x-|------------||-12--------|-<12>S=========<3>---|-5----------||-----------|---------------------|------------|
|
|-----------|---------------------|------------||-----------|---------------------|-3----------||--2--------|--(2)----------------|-2----------||--2--------|--(2)----------------|-0----------||--0--------|--(0)---x\-x\---x\---|-----0-0----||-----------|---------------------|-----0-0----|
T T ~~~~|-----------------------------|-----------|-----------------------------||-----------------------------|-----------|-----------------------------||-7s11-11s14-14s=19-----19s21-|-21--------|----(2)-[11]-2(9)-2(7)-----x-||-----------------------------|-----------|---------------------------x-||-5s=9--9s12-12s=17-----17s19-|-19--------|-x\--------------------------||-----------------------------|-----------|-----------------------------|
|
|----------3-(3)--2h3p2p=0----|-----------|-----------------------------||---------------------------3-|-----------|-----------------------------||-----------------------------|-----------|-2----------------2----2-2---||-----------------------------|-----------|-2----------------2----2-2---||-0---------------------------|--0--------|-0----------------0----0-0---||-0---------------------------|-----------|-----------------------------|
|------------|----------------------------|--------------------||------------|----------------------------|--------------------||-7----------|-7s11-11s14-14s=16-------14-|-(14)------14s19s18-||------------|----------------------------|--------------------||-5----------|-5s=9--9s12-12s=14-------12-|-(12)------12s17s16-||------------|----------------------------|--------------------|
|
|------------|----------5-(5)--3h5p3p2----|---0--------------5-||-3----------|--------------------------3-|------------------5-||-2----------|----------------------------|------------------6-||-0----------|----------------------------|--------------------||-----0-0----|-0--------------------------|--------------------||-----0-0----|-0--------------------------|--------------------|
|------------------------|-----------|------------------------||------------------------|-----------|------------------------||-18---x-14-(14)---16-16-|-16--------|-(16)-------6s=7--------||------------------------|-----------|------------------------||-16---x-12-(12)---14-14-|-14--------|-(14)---14\-4s=5--------||------------------------|-----------|------------------------|
|
| ~|--5-5-5--5--(5)---------|--2--------|------------------------||--5-5-5--5--(5)---------|--2--------|------------3-(3)-2-----||--6-6-6--6--(6)----4--4-|--4--------|---------------------4--||-------------------4--4-|--4--------|------------------------||-------------------2--2-|--2--------|---2--2-----------------||------------------------|-----------|------------------------|
|-0----(0)-------|-------------------4-|-4--------------||-0----(0)-----0-|-(0)----------0--4-4-|-4--------------||-2----(2)-------|-----2---------------|-6--------------||-2----(2)-------|-------2--(2)--------|-6--------------||-0----(0)-0-0---|---------------------|-4--------------||----------------|---------------------|----------------|
|
|----------------|---------------------|----------------||----------------|---------------------|----------------||-2--------------|--2--------------6---|-6---6-6-6-6-6--||-2--------------|--2--------------6---|-6---6-6-6-6-6--||-0--------------|--0--------------4---|-4---4-4-4-4-4--||----------------|---------------------|----------------|
PM|-4-------4-(4)------|-0--------|-0-----2-----2-----||-4-----4h5-(5)-4----|-0--------|-0-----2-2h3-2-----||-6----------------6-|-5--------|-5-------------4-2-||-6------------------|-5--------|-5-----------------||-4------------------|-3--------|-3-----------------||--------------------|----------|-------------------|
|
|--------------------|-0--------|-0--0\-------------||--------------------|-0--------|-0--0\-------------||-6-6-6---6-(6)------|-5--------|-5--5\-------------||-6-6-6---6-(6)------|-5--------|-5--5\-------------||-4-4-4---4-(4)------|-3--------|-3--3\-------------||--------------------|----------|-------------------|
Guitar Solo 2 ~~~~~~~~~~~~~|----------------------------------||-------7----(7)----(7)------9-----||-4b6---9b11-(9)b11-(9)b11--11b13==||----------------------------------||----------------------------------||----------------------------------|
|----------------------------2---2-2-------|------------------------------||--(9)---9---------------------2h3-2-------|----------------------10------||-(11)r(11)b13-(11)b13-(11)\---------4p(2)-|-4b6---/11b13-(11)b13-12b14---||------------------------------------------|------------------------------||------------------------------------------|------------------------------||------------------------------------------|------------------------------|
~~~~~~~~~~~~~~ ~~~|-----------------------2---2-2-------|---------------------------------||-(10)----(10)----------2-2h3-2-------|---------------------------------||-(12)b14-(12)b14-(12)\---------4p(2)-|-4b6---/9b11-(9)b11-12b14--11b13-||-------------------------------------|---------------------------------||-------------------------------------|---------------------------------||-------------------------------------|---------------------------------|
|-------------------------------------------------------||----------------------------------------------17----17-||-(11)b13-12b14--14b16-(14)b16-16b18==(16)b18=====16----||-------------------------------------------------------||-------------------------------------------------------||-------------------------------------------------------|
~|---------------17-17-17-17-17-17-17-17-17--------|---------------------------||----17r--------17-17-17-17-17-17-17-17-17-17-17--|-x-------------------------||-16-----16b18==16-16-16-16-16-16-16-16-16-16-16r-|-x-14s2-(2)-4-2-4b6-4-2----||-------------------------------------------------|------------------------4--||-------------------------------------------------|---------------------------||-------------------------------------------------|---------------------------|
|---7-7s9-(9)-9-9-9s7-7-7-(7)-7-7-5s|=2-2-2-2-------2-----2-2---2------||---5-5s7-(7)-7-7-7s5-5-5-(5)-5-5-5s|=2-2-2-2-----2---5b7-2-2-5---5b7r=||-----------------------------------|---------4b6----------------------||-x---------------------------------|----------------------------------||-x-7-7s9-(9)-9-9-9s7-7-7-(7)-7-7---|----------------------------------||-----------------------------------|----------------------------------|
|---------2-----------2-------------2-------------2---------||-(5)p2-----5p2-2-5p2---5p2---2-5p2---5p2---2h5p2---5p2---2-||-------5-------------------4-------------4-------------5---||-----------------------------------------------------------||-----------------------------------------------------------||-----------------------------------------------------------|
~ TP TP TP TP TP TP|-----------------------------------x-x-|------------------------------------||-----------2---------2-------------x-x-|-2----5----7-----9-----(9)----10----||-5p4p2h4h5---5p2h4h5---5-2---4-2-------|-4b6--7b9--9b11-11b13-(11)b13-12b14-||---------------------------4-----4-----|------------------------------------||---------------------------------------|------------------------------------||---------------------------------------|------------------------------------|
TP TP TP TP TP TP|-------------------------------------------||-(10)----12-----14----(14)-----17----14----||-(12)b14-14b16--16b18-(16)b18--16b18-16b18-||-------------------------------------------||-------------------------------------------||-------------------------------------------|
TP|-----------------------------------|--------------------------||-(14)----17----14----17----19------|-22-22-22-22-22-22-22--22-||-(16)b18-19b21-16b18-19b21-21b23===|=21-21-21-21-21-21-21r-21-||-----------------------------------|--------------------------||-----------------------------------|--------------------------||-----------------------------------|--------------------------|
~~~~~~~~~~~~~~~~~~~~~~~~~~~~~~~~~~~~~~~~~~~~~~~~~~~~|------------------------------------|-------------------------------||-22-----22---------22-22-22-(22)-22-|-(22)-22-22-22-(22)-22-(22)-22-||-21b23==21-21-(21)-21-21-21-(21)-21-|-(21)-21-21-21-(21)-21-(21)-21-||------------------------------------|-------------------------------||------------------------------------|-------------------------------||------------------------------------|-------------------------------|
|-----------------------------|--------------||-22-22-(22)-22---------------|--------------||-21-21-(21)-21-21r\--2-4-[2]-|-4b6-4-2------||-----------------------------|---------4----||-----------------------------|--------------||-----------------------------|--------------|
Outro repeat&fade PM--------||-2--x-2---------|----------------|-2----2---------2-|------------------------||-2--x-2---------|-3--x-3-x-x-3-3-|-2----2---------2-|-3-3--------------------||----------------|-2--x-2-x-x-2-2-|------------------|-2-2--------------------||-4----------4-4-|-0----0-----0-0-|-4--x-4---<4>-4-4-|-0-0--x-x-x-------------||-4------x-x-4-4-|----------------|-4--x-4-x-----4-4-|------x-x-x-4-----------||----------------|----------------|------------------|------x-x-x---0-0-2-2-2-|<>= N.HT= tapTp= trem pick
Tap to rate this tab
 
# A B C D E F G H I J K L M N O P Q R S T U V W X Y Z