Varg – Wolfskult tab

Title: Wolfskult
SubTitle: By ToKo
Artist: Varg
Album: Wolfskult

Legend
L - tied note
x - dead note
h - hammer on/pull off
b - bend
s - slide
~ - vibrato
g - ghost note
> - accentuated note
t - trill
M - palm mute
. - staccato
P - popping (bass)
S - slapping (bass)
+ - tapping
W - wide vibrato
< - fade in
w - whammy bar
= - tremolo picking
v - brush up
^ - brush down
V - pick stroke up
n - pick stroke down




this is the lead part, the rhythm part follows bellow:----|----|----|----|----------------------------------------------------|----|----|----|----|----------------------------------------------------|----|----|----|----|--------------------------16----16-16-16----12------|----|----|----|----|----------------------------------------------------|----|----|----|----|----------------------------------------------------|----|----|----|----|----------------------------------------------------|
----------------------------------------------------|----------------------------------------------------|--------12----16----12----------------------9-------|--14----------------------10----10-10-10------------|----------------------------------------------------|----------------------------------------------------|
----------------------------------------------------|----------------------------------------------------|--12----9-----------9-----14----14-14-14----11------|--------------10------------------------------------|----------------------------------------------------|----------------------------------------------------|
----------------------------------------------------|----------------------------------------------------|--------11----14----11----------------------8-------|--12----------------------9-----9--9--9-------------|----------------------------------------------------|----------------------------------------------------|
----------------------------------------------------|----------------------------------------------------|--11----11-11-11----17----16----16-16-16----12------|----------------------------------------------------|----------------------------------------------------|----------------------------------------------------|
----------------------------------------------------|----------------------------------------------------|--------12----16----12----------------------9-------|--14----------------------10----10-10-10------------|----------------------------------------------------|----------------------------------------------------|
----------------------------------------------------|----------------------------------------------------|--12----9-----------9-----14----14-14-14----11------|--------------10------------------------------------|----------------------------------------------------|----------------------------------------------------|
----------------------------------------------------|----------------------------------------------------|--------11----14----11----------------------8-------|--12----------------------9-----9--9--9-------------|----------------------------------------------------|----------------------------------------------------|
----------------------------------------------------|----------------------------------------------------|--11------------------------------------------------|----------------------------------------------------|----------------------------------------------------|----------------------------------------------------|
this is the tapping solo:
--------------------------12-7--12-7--12-7--12-7----|----------------------------------------------------|----------------------------------------------------|----------------------------------------------------|----------------------------------------------------|----------------------------------------------------|
--12-7--12-7--14-7--14-7--15-7--15-7--15-7--15-7----|----------------------------------------------------|----------------------------------------------------|----------------------------------------------------|----------------------------------------------------|----------------------------------------------------|
--15-7--15-7--15-7--15-7--17-7--15-7--17-7--19-7----|----------------------------------------------------|----------------------------------------------------|----------------------------------------------------|----------------------------------------------------|----------------------------------------------------|
--17-7--15-7--17-7--15-7--15-7--15-7--15-7--15-7----|----------------------------------------------------|----------------------------------------------------|----------------------------------------------------|----------------------------------------------------|----------------------------------------------------|
--15-7--15-7--14-7--14-7--15-7--15-7--15-7--15-7----|----------------------------------------------------|----------------------------------------------------|----------------------------------------------------|----------------------------------------------------|----------------------------------------------------|
--15-7--15-7--15-7--15-7--14-5--14-5--14-5--14-5----|----------------------------------------------------|----------------------------------------------------|----------------------------------------------------|----------------------------------------------------|----------------------------------------------------|
--14-5--14-5--14-5--14-5--14-5--14-5--14-5--14-5----|----------------------------------------------------|----------------------------------------------------|----------------------------------------------------|----------------------------------------------------|----------------------------------------------------|
--14-5--14-5--14-5--14-5--12-4--12-4--12-4--12-4----|----------------------------------------------------|----------------------------------------------------|----------------------------------------------------|----------------------------------------------------|----------------------------------------------------|
--12-4--12-4--12-4--12-4--12-7--12-7--12-7--12-7----|----------------------------------------------------|----------------------------------------------------|----------------------------------------------------|----------------------------------------------------|----------------------------------------------------|
--12-7--12-7--14-7--14-7--15-7--15-7--15-7--15-7----|----------------------------------------------------|----------------------------------------------------|----------------------------------------------------|----------------------------------------------------|----------------------------------------------------|
--15-7--15-7--15-7--15-7--17-7--15-7--17-7--19-7----|----------------------------------------------------|----------------------------------------------------|----------------------------------------------------|----------------------------------------------------|----------------------------------------------------|
--17-7--15-7--17-7--15-7--15-7--15-7--15-7--15-7----|----------------------------------------------------|----------------------------------------------------|----------------------------------------------------|----------------------------------------------------|----------------------------------------------------|
--15-7--15-7--14-7--14-7--15-7--15-7--15-7--15-7----|----------------------------------------------------|----------------------------------------------------|----------------------------------------------------|----------------------------------------------------|----------------------------------------------------|
--15-7--15-7--15-7--15-7--14-5--14-5--14-5--14-5----|----------------------------------------------------|----------------------------------------------------|----------------------------------------------------|----------------------------------------------------|----------------------------------------------------|
--14-5--14-5--14-5--14-5--14-5--14-5--14-5--14-5----|----------------------------------------------------|----------------------------------------------------|----------------------------------------------------|----------------------------------------------------|----------------------------------------------------|
--14-5--14-5--14-5--14-5--12-4--12-4--12-4--12-4----|----------------------------------------------------|----------------------------------------------------|----------------------------------------------------|----------------------------------------------------|----------------------------------------------------|
--12-4--12-4--12-4--12-4--12L-----------------------|--12---|----|----------------------------------------------------|-------|----|----------------------------------------------------|-------|----|----------------------------------------------------|-------|----|----------------------------------------------------|-------|----|----------------------------------------------------|-------|----|
so here are the rhythm:
B |----------------------------|----------------------------|F#|----------------------------|----------------------------|D |----------------------------|----------------------------|A |----------------------------|----------------------------|E |--------10-7--8-----2-------|--2-----------2--------2L---|B |-----8--------------0-------|--0-----0M-0M-0-----0M-0L---|
----------------------------|----------------------------|----------------------------|----------------------------|--2-----5--2--3-----2-------|--0--3-----------0M-0--0M---|
----------------------------------------------------|----------------------------------------------------|----------------------------------------------------|----------------------------------------------------|--2-----------------------------------------2L------|--0-----------0M----0M----0M-0M-0M----0M----0L------|
----------------------------|----------------------------|----------------------------|----------------------------|----------------------------|----------------------------|----------------------------|----------------------------|--2-----10-7--8-----2-------|--2-----------2--------2L---|--0--8--------------0-------|--0-----0M-0M-0-----0M-0L---|
----------------------------|----------------------------|----------------------------|----------------------------|--2-----5--2--3-----2-------|--0--3-----------0M-0--0M---|
----------------------------------------------------|----------------------------------------------------|----------------------------------------------------|----------------------------------------------------|--2-----------------------------------------2L------|--0-----------0M----0M----0M-0M-0M----0M----0L------|
----------------------------|----------------------------|----------------------------|----------------------------|----------------------------|----------------------------|----------------------------|----------------------------|--2-----10-7--8-----2-------|--2-----------2--------2L---|--0--8--------------0-------|--0-----0M-0M-0-----0M-0L---|
----------------------------|----------------------------|----------------------------|----------------------------|--2-----5--2--3-----2-------|--0--3-----------0M-0--0M---|
----------------------------------------------------|----------------------------------------------------|----------------------------------------------------|----------------------------------------------------|--2-----------------------------------------2L------|--0-----------0M----0M----0M-0M-0M----0M----0L------|
----------------------------|----------------------------|----------------------------|----------------------------|----------------------------|----------------------------|----------------------------|----------------------------|--2-----10-7--8-----2-------|--2-----------2--------2L---|--0--8--------------0-------|--0-----0M-0M-0-----0M-0L---|
----------------------------|----------------------------|----------------------------|----------------------------|--2-----5--2--3-----2-------|--0--3-----------0M-0--0M---|
----------------------------------------------------|----------------------------------------------------|----------------------------------------------------|----------------------------------------------------|--2-----------------------------------------2L------|--0-----------0M----0M----0M-0M-0M----0M----0L------|
----------------------------|----------------------------|----------------------------|----------------------------|----------------------------|----------------------------|----------------------------|----------------------------|--2-----10-7--8-----2-------|--2-----------2--------2L---|--0--8--------------0-------|--0-----0M-0M-0-----0M-0L---|
----------------------------|----------------------------|----------------------------|----------------------------|--2-----5--2--3-----2L-2----|--0--3-----------0M-0--0M---|
----------------------------------------------------|----------------------------------------------------|----------------------------------------------------|----------------------------------------------------|--2-----------------------------------------2L------|--0M----------0M----0M----0M-0M-0M----0M----0L------|
----------------------------|----------------------------|----------------------------|----------------------------|----------------------------|----------------------------|----------------------------|----------------------------|--2-----10-7--8-----2-------|--2-----------2--------2L---|--0--8--------------0-------|--0-----0M-0M-0-----0M-0L---|
----------------------------|----------------------------|----------------------------|----------------------------|--2-----5--2--3-----2-------|--0--3-----------0M-0--0M---|
----------------------------------------------------|----------------------------------------------------|----------------------------------------------------|----------------------------------------------------|--2-----------------------------------------2L------|--0-----------0M----0M----0M-0M-0M----0M----0L------|
----------------------------|----------------------------|----------------------------|----------------------------|----------------------------|----------------------------|-----------------10-9--7----|--9--10-9--7-----7--5--4----|--2-----------7-------------|--------------5-------------|--0--0M-0M-0M---------------|----------------------------|
----------------------------|----------------------------|----------------------------|----------------------------|----------------------------|----------------------------|--5--7--5--------10-9--7----|--9--10-9--7-----7--5--4----|-----------5--7-------------|--------------5-------------|----------------------------|----------------------------|
----------------------------|----------------------------|----------------------------|----------------------------|----------------------------|----------------------------|-----------------10-9--7----|--9--10-9--7-----7--5--4----|--7--5--7-----7-------------|--------------5-------------|----------------------------|----------------------------|
----------------------------|----------------------------|----------------------------|----------------------------|----------------------------|----------------------------|--5--7--5--------10-9--7----|--9--10-9--7-----7--5--4----|-----------5--7-------------|--------------5-------------|----------------------------|----------------------------|
----------------------------|----------------|----------|----------------|----------------------------|----------------|----------|----------------|----------------------------|----------------|----------|----------------|--------------5L------------|--5--2--4L------|--4--2L---|--2-------------|--7--5--7-----3L------------|--3--0--2L------|--2--0L---|--0--5--2L------|----------------------------|----------------|----------|-----3--0L------|
----------|----------|----------|----------|----------|----------|----------|----------|----------|----------|----------|----------|----------|----------|----------|----------|----------|----------|-----5L---|--5--7L---|--7--4----|--2-------|-----5L---|--5--7L---|--2--3L---|--3--5L---|--5--2----|--0--2L---|--2--3L---|--3--5L---|--0-------|----------|----------|-----0L---|--0-------|----------|
----------------------------|----------------------------|----------------------------|--7-----------4-----7--4----|--5-----------2-----5--2----|----------------------------|
----------------------------------------------------|----------------------------------------------------|----------------------------------------------------|--2-------------------------------------------------|--0-----------------------2M----2M-2M-2M----2M-2M---|--------------------------0M----0M-0M-0M----0M-0M---|
----------------------------------------------------|----------------------------------------------------|----------------------------------------------------|--------------------------5M----5M-5M-5M----5M-5M---|--2M----2M-2M-2M----2M-2M-3M----3M-3M-3M----3M-3M---|--0M----0M-0M-0M----0M-0M---------------------------|
----------------------------------------------------|----------------------------------------------------|----------------------------------------------------|--5M----5M-5M-5M----5M-5M-7M----7M-7M-7M----7M-7M---|--3M----3M-3M-3M----3M-3M-5M----5M-5M-5M----5M-5M---|----------------------------------------------------|
----------------------------------------------------|----------------------------------------------------|----------------------------------------------------|--7M----7M-7M-7M----7M-7M-4M----4M-4M-4M----4M-4M---|--5M----5M-5M-5M----5M-5M-2M----2M-2M-2M----2M-2M---|----------------------------------------------------|
----------------------------------------------------|----------------------------------------------------|----------------------------------------------------|--2M----2M-2M-2M----2M-2M---------------------------|--0M----0M-0M-0M----0M-0M-2M----2M-2M-2M----2M-2M---|--------------------------0M----0M-0M-0M----0M-0M---|
----------------------------------------------------|----------------------------------------------------|----------------------------------------------------|--------------------------5M----5M-5M-5M----5M-5M---|--2M----2M-2M-2M----2M-2M-3M----3M-3M-3M----3M-3M---|--0M----0M-0M-0M----0M-0M---------------------------|
----------------------------------------------------|----------------------------------------------------|----------------------------------------------------|--5M----5M-5M-5M----5M-5M-7M----7M-7M-7M----7M-7M---|--3M----3M-3M-3M----3M-3M-5M----5M-5M-5M----5M-5M---|----------------------------------------------------|
----------------------------------------------------|----------------------------------------------------|----------------------------------------------------|--7M----7M-7M-7M----7M-7M-4-----7-----------4-------|--5M----5M-5M-5M----5M-5M-2-----5-----------2-------|----------------------------------------------------|
----------------------------|----------------------------|----------------------------|----------------------------|----------------------------|----------------------------|--5-------------------------|----------------------------|--3-----10-7--8-----2-------|--2-----------2--------2L---|-----8--------------0-------|--0-----0M-0M-0-----0M-0L---|
----------------------------|----------------------------|----------------------------|----------------------------|--2-----5--2--3-----2-------|--0--3-----------0M-0--0M---|
----------------------------------------------------|----------------------------------------------------|----------------------------------------------------|----------------------------------------------------|--2-----------------------------------------2L------|--0-----------0M----0M----0M-0M-0M----0M----0L------|
----------------------------|----------------------------|----------------------------|----------------------------|----------------------------|----------------------------|----------------------------|----------------------------|--2-----10-7--8-----2-------|--2-----------2--------2L---|--0--8--------------0-------|--0-----0M-0M-0-----0M-0L---|
----------------------------|----------------------------|----------------------------|----------------------------|--2-----5--2--3-----2-------|--0--3-----------0M-0--0M---|
----------------------------------------------------|----------------------------------------------------|----------------------------------------------------|----------------------------------------------------|--2-----------------------------------------2L------|--0-----------0M----0M----0M-0M-0M----0M----0L------|
----------------------------------------------------|----------------------------------------------------|----------------------------------------------------|----------------------------------------------------|--2-----------------------2M----2M-2M-2M----2M-2M---|--0-----0M----0M----0M----0M----0M-0M-0M----0M-0M---|
----------------------------------------------------|----------------------------------------------------|----------------------------------------------------|--------------------------5M----5M-5M-5M----5M-5M---|--2M----2M-2M-2M----2M-2M-3M----3M-3M-3M----3M-3M---|--0M----0M-0M-0M----0M-0M---------------------------|
----------------------------------------------------|----------------------------------------------------|----------------------------------------------------|--5M----5M-5M-5M----5M-5M-7M----7M-7M-7M----7M-7M---|--3M----3M-3M-3M----3M-3M-5M----5M-5M-5M----5M-5M---|----------------------------------------------------|
----------------------------------------------------|----------------------------------------------------|----------------------------------------------------|--7M----7M-7M-7M----7M-7M-4M----4M-4M-4M----4M-4M---|--5M----5M-5M-5M----5M-5M-2M----2M-2M-2M----2M-2M---|----------------------------------------------------|
----------------------------------------------------|----------------------------------------------------|----------------------------------------------------|--2M----2M-2M-2M----2M-2M---------------------------|--0M----0M-0M-0M----0M-0M-2M----2M-2M-2M----2M-2M---|--------------------------0M----0M-0M-0M----0M-0M---|
----------------------------------------------------|----------------------------------------------------|----------------------------------------------------|--------------------------5M----5M-5M-5M----5M-5M---|--2M----2M-2M-2M----2M-2M-3M----3M-3M-3M----3M-3M---|--0M----0M-0M-0M----0M-0M---------------------------|
----------------------------------------------------|----------------------------------------------------|----------------------------------------------------|--5M----5M-5M-5M----5M-5M-7M----7M-7M-7M----7M-7M---|--3M----3M-3M-3M----3M-3M-5M----5M-5M-5M----5M-5M---|----------------------------------------------------|
----------------------------------------------------|----------------------------------------------------|----------------------------------------------------|--7M----7M-7M-7M----7M-7M-4-----7-----------4-------|--5M----5M-5M-5M----5M-5M-2-----5-----------2-------|----------------------------------------------------|
----------------------------|----------------------------|----------------------------|----------------------------|----------------------------|----------------------------|--5-------------------------|----------------------------|--3-----10-7--8-----2--2----|--2--2--4--4--5--5--5--5----|-----8--------------0--0----|--0--0--2--2--3--3--3--3----|
----------------------------|----------------------------|----------------------------|----------------------------|----------------------------|----------------------------|--------------7--7--7--7----|--4--4--4--4--5--4--2L------|--5--5--5--5--5--5--5--5----|--2--2--2--2--3--2--0L------|--3--3--3--3----------------|----------------------------|
----------------------------|----------------------------|----------------------------|----------------------------|----------------------------|----------------------------|--2-----4--4--5--5--5--5----|--5--5--5--5--14-14-14-14---|--0-----2--2--3--3--3--3----|--3--3--3--3--12-12-12-12---|----------------------------|----------------------------|
----------------------------|----------------------------|----------------------------|----------------------------|----------------------------|----------------------------|--14-14-14-14-4--4--4--4----|--4--4--4--4--6--6--6--6----|--12-12-12-12-5--5--5--5----|--5--5--5--5--7--7--7--7----|----------------------------|----------------------------|
----------------------------|----------------------------|----------------------------|----------------------------|----------------------------|----------------------------|--6--6--6--6----------------|----------------------------|--7--7--7--7--2--2--2--2----|--2--2--4--4--5--5--5--5----|--------------0--0--0--0----|--0--0--2--2--3--3--3--3----|
----------------------------|----------------------------|----------------------------|----------------------------|----------------------------|----------------------------|--------------7--7--7--7----|--4--4--4--4--5--4--2L------|--5--5--5--5--5--5--5--5----|--2--2--2--2--3--2--0L------|--3--3--3--3----------------|----------------------------|
----------------------------|----------------------------|----------------------------|----------------------------|----------------------------|----------------------------|--2-----4--4--5--5--5--5----|--5--5--5--5--14-14-14-14---|--0-----2--2--3--3--3--3----|--3--3--3--3--12-12-12-12---|----------------------------|----------------------------|
----------------------------|----------------------------|----------------------------|----------------------------|----------------------------|----------------------------|--14-14-14-14-4--4--4--4----|--4--4--4--4--6--6--6--6----|--12-12-12-12-5--5--5--5----|--5--5--5--5--7--7--7--7----|----------------------------|----------------------------|
----------------------------|----------------------------|----------------------------|----------------------------|----------------------------|----------------------------|--6--6--6--6----------------|----------------------------|--7--7--7--7--2--2--2--2----|--2--2--4--4--5--5--5--5----|--------------0--0--0--0----|--0--0--2--2--3--3--3--3----|
----------------------------|----------------------------|----------------------------|----------------------------|----------------------------|----------------------------|--------------7--7--7--7----|--4--4--4--4--5--4--2L------|--5--5--5--5--5--5--5--5----|--2--2--2--2--3--2--0L------|--3--3--3--3----------------|----------------------------|
----------------------------|----------------------------|----------------------------|----------------------------|----------------------------|----------------------------|--2-----4--4--5--5--5--5----|--5--5--5--5--14-14-14-14---|--0-----2--2--3--3--3--3----|--3--3--3--3--12-12-12-12---|----------------------------|----------------------------|
----------------------------|----------------------------|----------------------------|----------------------------|----------------------------|----------------------------|--14-14-14-14-4--4--4--4----|--4--4--4--4--6--6--6--6----|--12-12-12-12-5--5--5--5----|--5--5--5--5--7--7--7--7----|----------------------------|----------------------------|
----------------------------|----------------------------|----------------------------|----------------------------|----------------------------|----------------------------|--6--6--6--6----------------|----------------------------|--7--7--7--7--2--2--2--2----|--2--2--4--4--5--5--5--5----|--------------0--0--0--0----|--0--0--2--2--3--3--3--3----|
----------------------------|----------------------------|----------------------------|----------------------------|----------------------------|----------------------------|--------------7--7--7--7----|--4--4--4--4--5--4--2L------|--5--5--5--5--5--5--5--5----|--2--2--2--2--3--2--0L------|--3--3--3--3----------------|----------------------------|
----------------------------|----------------------------|----------------------------|----------------------------|----------------------------|----------------------------|--2-----4--4--5--5--5--5----|--5--5--5--5--14-14-14-14---|--0-----2--2--3--3--3--3----|--3--3--3--3--12-12-12-12---|----------------------------|----------------------------|
----------------------------|----------------------------|----------------------------|----------------------------|----------------------------|----------------------------|--14-14-14-14-4--4--4--4----|--4--4--4--4--6--6--6--6----|--12-12-12-12-5--5--5--5----|--5--5--5--5--7--7--7--7----|----------------------------|----------------------------|
----------------------------|----------------|----------|----------------|----------------------------|----------------|----------|----------------|----------------------------|----------------|----------|----------------|--6--6--6--6--5L------------|--5--2--4L------|--4--2L---|--2-------------|--7--7--7--7--3L------------|--3--0--2L------|--2--0L---|--0--5--2L------|----------------------------|----------------|----------|-----3--0L------|
----------|----------|----------|----------|----------|----------|----------|----------|----------|----------|----------|----------|----------|----------|----------|----------|----------|----------|-----5L---|--5--7L---|--7--4----|--2-------|-----5L---|--5--7L---|--2--3L---|--3--5L---|--5--2----|--0--2L---|--2--3L---|--3--5L---|--0-------|----------|----------|-----0L---|--0-------|----------|
----------------------------|----------------------------|----------------------------|--7-----------4-----7--4----|--5-----------2-----5--2----|----------------------------|
----------------------------------------------------|----------------------------------------------------|----------------------------------------------------|--2-------------------------------------------------|--0-----------------------2M----2M-2M-2M----2M-2M---|--------------------------0M----0M-0M-0M----0M-0M---|
----------------------------------------------------|----------------------------------------------------|----------------------------------------------------|--------------------------5M----5M-5M-5M----5M-5M---|--2M----2M-2M-2M----2M-2M-3M----3M-3M-3M----3M-3M---|--0M----0M-0M-0M----0M-0M---------------------------|
----------------------------------------------------|----------------------------------------------------|----------------------------------------------------|--5M----5M-5M-5M----5M-5M-7M----7M-7M-7M----7M-7M---|--3M----3M-3M-3M----3M-3M-5M----5M-5M-5M----5M-5M---|----------------------------------------------------|
----------------------------------------------------|----------------------------------------------------|----------------------------------------------------|--7M----7M-7M-7M----7M-7M-4M----4M-4M-4M----4M-4M---|--5M----5M-5M-5M----5M-5M-2M----2M-2M-2M----2M-2M---|----------------------------------------------------|
----------------------------------------------------|----------------------------------------------------|----------------------------------------------------|--2M----2M-2M-2M----2M-2M---------------------------|--0M----0M-0M-0M----0M-0M-2M----2M-2M-2M----2M-2M---|--------------------------0M----0M-0M-0M----0M-0M---|
----------------------------------------------------|----------------------------------------------------|----------------------------------------------------|--------------------------5M----5M-5M-5M----5M-5M---|--2M----2M-2M-2M----2M-2M-3M----3M-3M-3M----3M-3M---|--0M----0M-0M-0M----0M-0M---------------------------|
----------------------------------------------------|----------------------------------------------------|----------------------------------------------------|--5M----5M-5M-5M----5M-5M-7M----7M-7M-7M----7M-7M---|--3M----3M-3M-3M----3M-3M-5M----5M-5M-5M----5M-5M---|----------------------------------------------------|
----------------------------------------------------|----------------------------------------------------|----------------------------------------------------|--7M----7M-7M-7M----7M-7M-4-----7-----------4-------|--5M----5M-5M-5M----5M-5M-2-----5-----------2-------|----------------------------------------------------|
----------------------------|----------------------------|----------------------------|----------------------------|----------------------------|----------------------------|--5-------------------------|----------------------------|--3-----10-7--8-----2-------|--2-----------2--------2L---|-----8--------------0-------|--0-----0M-0M-0-----0M-0L---|
----------------------------|----------------------------|----------------------------|----------------------------|--2-----5--2--3-----2-------|--0--3-----------0M-0--0M---|
----------------------------------------------------|----------------------------------------------------|----------------------------------------------------|----------------------------------------------------|--2-----------------------------------------2L------|--0-----------0M----0M----0M-0M-0M----0M----0L------|
----------------------------|----------------------------|----------------------------|----------------------------|----------------------------|----------------------------|----------------------------|----------------------------|--2-----10-7--8-----2-------|--2-----------2--------2L---|--0--8--------------0-------|--0-----0M-0M-0-----0M-0L---|
----------------------------|----------------------------|----------------------------|----------------------------|--2-----5--2--3-----2-------|--0--3-----------0M-0--0M---|
----------------------------------------------------|----------------------------------------------------|----------------------------------------------------|----------------------------------------------------|--2-----------------------------------------2L------|--0-----------0M----0M----0M-0M-0M----0M----0L------|
----------------------------|----------------------------|----------------------------|----------------------------|----------------------------|----------------------------|----------------------------|----------------------------|--2-----10-7--8-----2-------|--2-----------2--------2L---|--0--8--------------0-------|--0-----0M-0M-0-----0M-0L---|
----------------------------|----------------------------|----------------------------|----------------------------|--2-----5--2--3-----2-------|--0--3-----------0M-0--0M---|
----------------------------------------------------|----------------------------------------------------|----------------------------------------------------|----------------------------------------------------|--2-----------------------------------------2L------|--0-----------0M----0M----0M-0M-0M----0M----0L------|
----------------------------|----------------------------|----------------------------|----------------------------|----------------------------|----------------------------|----------------------------|----------------------------|--2-----10-7--8-----2-------|--2-----------2--------2L---|--0--8--------------0-------|--0-----0M-0M-0-----0M-0L---|
----------------------------|----------------------------|----------------------------|----------------------------|--2-----5--2--3-----2-------|--0--3-----------0M-0--0M---|
----------------------------------------------------|----------------------------------------------------|----------------------------------------------------|----------------------------------------------------|--2-----------------------------------------2L------|--0-----------0M----0M----0M-0M-0M----0M----0L------|
----------------------------|----||----------------------------|----||----------------------------|----||----------------------------|----||--2-----------2M----2M------|----||--0--0M-0M-0M-0M----0M------|----||
Please rate this tab:
x1.0