Vehemence - By Your Bedside tab

100% correct, posted by the guitarists themselves!

B ||----------------------------------------|F#||----------------------------------------|D ||----------------------------------------|A ||----------------------------------------|E ||----------------------------------------|B ||--0-0-0-3-0-3-0-2-0-2-0-1-0-2-2-0-3-3-0-|
----------------------------------------|----------------------------------------|----------------------------------------|----------------------------------------|----------------------------------------|--0-0-0-3-0-3-0-2-0-2-0-1-0-2-2-0-3-3-0-|
----------------------------------------|-----------------------------------|----------------------------------------|-----------------------------------|----------------------------------------|-----------------------------------|----------------------------------------|-----------------------------------|----------------------------------------|-----------------------------------|--0-0-0-3-0-3-0-2-0-2-0-1-0-2-2-0-3-3-0-|--0-0-0-3-0-3-0-2-0-5-0-6-0-5-0-3--|
----------------------------------------|----------------------------------------|----------------------------------------|----------------------------------------|----------------------------------------|--0-0-0-3-0-3-0-2-0-2-0-1-0-2-2-0-3-3-0-|
----------------------------------------|----------------------------------------|----------------------------------------|----------------------------------------|----------------------------------------|--0-0-0-3-0-3-0-2-0-2-0-1-0-2-2-0-3-3-0-|
----------------------------------------|-----------------------------------|----------------------------------------|-----------------------------------|----------------------------------------|-----------------------------------|----------------------------------------|-----------------------------------|----------------------------------------|-----------------------------------|--0-0-0-3-0-3-0-2-0-2-0-1-0-2-2-0-3-3-0-|--0-0-0-3-0-3-0-2-0-5-0-6-0-5-0-3--|
----------------------------------------|----------------------------------------|----------------------------------------|----------------------------------------|----------------------------------------|--0-0-0-3-0-3-0-2-0-2-0-1-0-2-2-0-3-3-0-|
----------------------------------------|----------------------------------------|----------------------------------------|----------------------------------------|----------------------------------------|--0-0-0-3-0-3-0-2-0-2-0-1-0-2-2-0-3-3-0-|
----------------------------------------|-----------------------------------|----------------------------------------|-----------------------------------|----------------------------------------|-----------------------------------|----------------------------------------|-----------------------------------|----------------------------------------|-----------------------------------|--0-0-0-3-0-3-0-2-0-2-0-1-0-2-2-0-3-3-0-|--0-0-0-3-0-3-0-2-0-5-0-6-0-5-0-3--|
----------------------------------------|----------------------------------------|----------------------------------------|----------------------------------------|----------------------------------------|--0-0-0-3-0-3-0-2-0-2-0-1-0-2-2-0-3-3-0-|
----------------------------------------|----------------------------------------|----------------------------------------|----------------------------------------|----------------------------------------|--0-0-0-3-0-3-0-2-0-2-0-1-0-2-2-0-3-3-0-|
----------------------------------------|-----------------------------------|----------------------------------------|-----------------------------------|----------------------------------------|-----------------------------------|----------------------------------------|-----------------------------------|----------------------------------------|-----------------------------------|--0-0-0-3-0-3-0-2-0-2-0-1-0-2-2-0-3-3-0-|--0-0-0-3-0-3-0-2-0-5-0-6-0-5-0-3--|
----------------------------------------------------------------------|----------------------------------------------------------------------|----------------------------------------------------------------------|----------------------------------9-9-9-9-9-9-9-9---------------------|--7-7-7-7-7-7-7-7-7-7-7-7-7-7-7-7-----------------9-9-9-9-10-10-10-10-|----------------------------------------------------------------------|
------------------------------------------------------------------|------------------------------------------------------------------|------------------------------------------------------------------|----------------------------------7-7-7-7-7-7-7-7-5-5-5-5-4-4-4-4-|------------------------------------------------------------------|--8-8-8-8-8-8-8-8-8-8-8-8-8-8-8-8---------------------------------|
------------------------------------------------------------------|------------------------------------------------------------------|------------------------------------------------------------------|------------------------------------------------------------------|--2-2-2-2-2-2-2-2-2-2-2-2-3-3-2-2-0-0-0-0-0-0-0-0-0-0-0-0-2-2-0-0-|------------------------------------------------------------------|
------------------------------------------------------------------|------------------------------------------------------------------|------------------------------------------------------------------|------------------------------------------------------------------|------------------2-2-2-2-2-2-2-2-7-7-7-7-7-7-7-7-7-7-7-7-7-7-7-7-|--3-3-3-3-3-3-3-3-------------------------------------------------|
----------------------------------------------------------------------|----------------------------------------------------------------------|----------------------------------------------------------------------|--9-9-9-9-9-9-9-9-----------------------------------------------------|------------------9-9-9-9-10-10-10-10---------------------------------|--------------------------------------8-8-8-8-8-8-8-8-8-8-8-8-8-8-8-8-|
------------------------------------------------------------------|------------------------------------------------------------------|------------------------------------------------------------------|--7-7-7-7-7-7-7-7-5-5-5-5-4-4-4-4---------------------------------|----------------------------------2-2-2-2-2-2-2-2-2-2-2-2-3-3-2-2-|------------------------------------------------------------------|
------------------------------------------------------------------|------------------------------------------------------------------|------------------------------------------------------------------|------------------------------------------------------------------|--0-0-0-0-0-0-0-0-0-0-0-0-2-2-0-0-----------------2-2-2-2-2-2-2-2-|----------------------------------3-3-3-3-3-3-3-3-----------------|
--------------------------------------|------------------------------------|--------------------------------------|------------------------------------|--------------------------------------|------------------------------------|--------9---9---7---7-----------------|------9---9---7---7-----------------|--------------------------------------|------------------------------------|--0-0-0---0---0---0---0-1-0-2-0-3-3-0-|--0-0---0---0---0---0-1-0-2-0-3-3-0-|
------------------------------------|----------------------------------|------------------------------------|----------------------------------|------------------------------------|----------------------------------|------9---9---7---7-----------------|------9---9---7---9---10---9---7--|------------------------------------|----------------------------------|--0-0---0---0---0---0-1-0-2-0-3-3-0-|--0-0---0---0---0---0----0---0----|
--------------------------------------|--------------------------------------|--------------------------------------|--------------------------------------|--------------------------------------|--------------------------------------|--------9---9---7---7-----------------|--------9---9---7---7-----------------|--------------------------------------|--------------------------------------|--0-0-0---0---0---0---0-1-0-2-0-3-3-0-|--0-0-0---0---0---0---0-1-0-2-0-3-3-0-|
--------------------------------------|----------------------------------|--------------------------------------|----------------------------------|--------------------------------------|----------------------------------|--------9---9---7---7-----------------|------9---9---7---9---10---9---7--|--------------------------------------|----------------------------------|--0-0-0---0---0---0---0-1-0-2-0-3-3-0-|--0-0---0---0---0---0----0---0----|
----------------------------------------------------------------------|----------------------------------------------------------------------|----------------------------------------------------------------------|----------------------------------9-9-9-9-9-9-9-9---------------------|--7-7-7-7-7-7-7-7-7-7-7-7-7-7-7-7-----------------9-9-9-9-10-10-10-10-|----------------------------------------------------------------------|
------------------------------------------------------------------|------------------------------------------------------------------|------------------------------------------------------------------|----------------------------------7-7-7-7-7-7-7-7-5-5-5-5-4-4-4-4-|------------------------------------------------------------------|--8-8-8-8-8-8-8-8-8-8-8-8-8-8-8-8---------------------------------|
------------------------------------------------------------------|------------------------------------------------------------------|------------------------------------------------------------------|------------------------------------------------------------------|--2-2-2-2-2-2-2-2-2-2-2-2-3-3-2-2-0-0-0-0-0-0-0-0-0-0-0-0-2-2-0-0-|------------------------------------------------------------------|
------------------------------------------------------------------|------------------------------------------------------------------|------------------------------------------------------------------|------------------------------------------------------------------|----------------2-2-2-2-2-2-2-2-2-7-7-7-7-7-7-7-7-7-7-7-7-7-7-7-7-|--3-3-3-3-3-3-3---------------------------------------------------|
----------------------------------------------------------------------|----------------------------------------------------------------------|----------------------------------------------------------------------|--9-9-9-9-9-9-9-9-----------------------------------------------------|------------------9-9-9-9-10-10-10-10---------------------------------|--------------------------------------8-8-8-8-8-8-8-8-8-8-8-8-8-8-8-8-|
------------------------------------------------------------------|------------------------------------------------------------------|------------------------------------------------------------------|--7-7-7-7-7-7-7-7-5-5-5-5-4-4-4-4---------------------------------|----------------------------------2-2-2-2-2-2-2-2-2-2-2-2-3-3-2-2-|------------------------------------------------------------------|
------------------------------------------------------------------|------------------------------------------------------------------|------------------------------------------------------------------|------------------------------------------------------------------|--0-0-0-0-0-0-0-0-0-0-0-0-2-2-0-0-----------------2-2-2-2-2-2-2-2-|----------------------------------3-3-3-3-3-3-3-3-----------------|
-----------------------------------------------------------|-----------------------------------------------------------|-----------------------------------------------------------|-------------10-10-10-10-10-10-10-10-10-10-10-10-9-9-10-10-|--2----2-2---7--7--7--7--7--7--7--7--7--7--7--7--7-7-7--7--|--0----0-0-------------------------------------------------|
----------------------------------------------------------------|----------------------------------------------------------------|----------------------------------------------------------------|--9--9--9--9--9--9--9--9--5-5-5-5-5-5-5-5-----------------------|--10-10-10-10-10-10-10-10-7-7-7-7-7-7-7-7-4-4-3-2-3-4-4-3-4-4-3-|------------------------------------------2-2-1-0-1-2-2-1-2-2-1-|
--------------------------------------------------------------------|--------------------------------------------------------------------|--------------------------------------------------------------------|----------------------10-10-10-10-10-10-10-10-10-10-10-10-9-9-10-10-|--2-3-4-4-3-7-7-8-7-5-7--7--7--7--7--7--7--7--7--7--7--7--7-7-7--7--|--0-1-2-2-1-5-5-6-5-3-----------------------------------------------|
----------------------------------------------------------|----------------------------------------------------------|----------------------------------------------------------|--9--9--9--9--9--9--9--9----------------------------------|--10-10-10-10-10-10-10-10-4-4-3-2-3-4-4-3-4-4-3-2-3-4-4-3-|--------------------------2-2-1-0-1-2-2-1-2-2-1-0-1-2-2-1-|
------------------------------------------------------------------------------------------------------------------------------------------------------------------------------------------------------------------------------------------------------------10-10-10-10-10-10-10-10-10-10-10-10-9-9-10-10-9--9--9--9--9--9--9--9--7-7-8-7-5-7--7--7--7--7--7--7--7--7--7--7--7--7-7-7--7--10-10-10-10-10-10-10-1--5-5-6-5-3---------------------------------------------------------------------
--------------------------------------------------|--------------------------------------------------|--------------------------------------------------|--5-5-5-5-5-5-5-5---------------------------------|--7-7-7-7-7-7-7-7-4-4-3-2-3-4-4-3-4-4-3-2-3-4-4-3-|------------------2-2-1-0-1-2-2-1-2-2-1-0-1-2-2-1-|
------------------------------------------------------------------------------------------------------------------------------------------------------------------------------------------------------------------------------------------------------------10-10-10-10-10-10-10-10-10-10-10-10-9-9-10-10-9--9--9--9--9--9--9--9--7-7-8-7-5-7--7--7--7--7--7--7--7--7--7--7--7--7-7-7--7--10-10-10-10-10-10-10-1--5-5-6-5-3---------------------------------------------------------------------
--------------------------------------------|--------------------------------------------|--------------------------------------------|--------------------------------------------|--4-4-3-2-3-4-4-3-4-4-3-2-3-4-4-3-7-7-8-7-5-|--2-2-1-0-1-2-2-1-2-2-1-0-1-2-2-1-5-5-6-5-3-|
--------------------------------------------|--------------------------------------------|--------------------------------------------|--------------------------------------------|--4-4-3-2-3-4-4-3-4-4-3-2-3-4-4-3-7-7-8-7-5-|--2-2-1-0-1-2-2-1-2-2-1-0-1-2-2-1-5-5-6-5-3-|
--------------------------------------------|--------------------------------------------|--------------------------------------------|--------------------------------------------|--4-4-3-2-3-4-4-3-4-4-3-2-3-4-4-3-7-7-8-7-5-|--2-2-1-0-1-2-2-1-2-2-1-0-1-2-2-1-5-5-6-5-3-|
---------------------------------------------------|---------------------------------------------------|---------------------------------------------------|------5-9----------9-9-9-9-9-9-9-9-9-9-9-9-9-9-9-9-|--3-7-----7-10-3-7-7-7-7-7-7-7-7-7-7-7-7-7-9-9-9-9-|---------------------------------------------------|
--------------------------------------------------------------------------------------------------------------------------------------------------------------------------------------------------------------------------------------------------9-9-9-9-9--9--9--9--9--9--9--9--9--9--9--9--9-9-9-9-9-9-9-9-9-9-9-9-9-9-9--9----9-9-9-9-10-10-10-10-10-10-10-10-10-10-10-10-7-7-7-7-7-7-7-7-7-7-7-7-9-9-10-10---------------------------------------------------------------------------------
--------------------------------------------------------------------------|--------------------------------------------------------------------------|--------------------------------------------------------------------------|--9-9-9-9-9--9--9--9--9--9--9--9--9-9-9-9-9-9-9-9-9-9-9-9-9-9-9-9-9-9-9-9-|--9-9-9-9-10-10-10-10-10-10-10-10-6-6-6-6-7-7-7-7-7-7-7-7-7-7-7-7-9-9-9-9-|----------8--8--8--8--8--8--8--8------------------------------------------|
--------------------------------------------------------------------------------------------------------------------------------------------------------------------------------------------------------------------------------------------------9-9-9-9-9--9--9--9--9--9--9--9--9--9--9--9--9-9-9-9-9-9-9--9--9-9-9-9-9---------9-9-9-9-10-10-10-10-10-10-10-10-10-10-10-10-7-7-7-7-9-9-10-10-9-9-9-9-9-9-9-9---------------------------------------------------------------------------7-7-7-
-----------------------------------------------------|-----------------------------------------------------|-----------------------------------------------------|-----------------------9-9-9-9-9-9-9-9-9-9-9-9-9-9-9-|--9-10-9-10--12-10-12--7-7-7-7-7-7-7-7-7-7-7-7-9-9-9-|--7-8--7-8---10-8--10--------------------------------|
-------------------------------------------------------------------------------|-------------------------------------------------------------------------------|-------------------------------------------------------------------------------|--9-9-9-9-9-9--9--9--9--9--9--9--9--9--9--9--9--9-9-9-9-9-9-9-9-9-9-9-9-9-9-9--|--9-9-9-9-9-10-10-10-10-10-10-10-10-10-10-10-10-7-7-7-7-7-7-7-7-7-7-7-7-9-9-10-|-------------------------------------------------------------------------------|
---------------------------------------------------------------------------|---------------------------------------------------------------------------|---------------------------------------------------------------------------|--9--9-9-9-9-9--9--9--9--9--9--9--9--9-9-9-9-9-9-9-9-9-9-9-9-9-9-9-9-9-9-9-|--10-9-9-9-9-10-10-10-10-10-10-10-10-6-6-6-6-7-7-7-7-7-7-7-7-7-7-7-7-9-9-9-|-------------8--8--8--8--8--8--8--8----------------------------------------|
--------------------------------------------------------------------------------------------------------------------------------------------------------------------------------------------------------------------------------------------------9-9-9-9-9-9--9--9--9--9--9--9--9--9--9--9--9--9-9-9-9-9-9-9--9--9-9-9-9---------9-9-9-9-9-10-10-10-10-10-10-10-10-10-10-10-10-7-7-7-7-9-9-10-10-9-9-9-9-9-9-9---------------------------------------------------------------------------7-7-7-
------------------------------------|----------------------------|------------------------------------|----------------------------|------------------------------------|----------------------------|------------------------------------|----------------------------|--10-9-10--12-10-12--10--9--10--12--|--10--12--------------------|--8--7-8---10-8--10--8---7--8---10--|--8---10--0-0---0-0---0-0---|
--------------------------------|--------------------------------------|--------------------------------|--------------------------------------|--------------------------------|--------------------------------------|--------------------------------|--------------------------------------|--------------------------------|--------------------------------------|--0-0-0-0-0-0-0-0---0-0---0-0---|--0-0-0-0-0-0-0-0-3-0-3-0-2-0-2-0-1-0-|
----------------------------------------|----------------------------------------|----------------------------------------|----------------------------------------|----------------------------------------|--2-2-0-3-3-0-0-0-0-3-0-3-0-2-0-2-0-1-0-|
----------------------------------------|----------------------------------------|----------------------------------------|----------------------------------------|----------------------------------------|--2-2-0-3-3-0-0-0-0-3-0-3-0-2-0-2-0-1-0-|
----------------------------------------|-----------------------------------|----------------------------------------|-----------------------------------|----------------------------------------|-----------------------------------|----------------------------------------|-----------------------------------|----------------------------------------|-----------------------------------|--2-2-0-3-3-0-0-0-0-3-0-3-0-2-0-5-0-6-0-|--5-0-3--0-0-0-3-0-3-0-2-0-2-0-1-0-|
----------------------------------------|----------------------------------------|----------------------------------------|----------------------------------------|----------------------------------------|--2-2-0-3-3-0-0-0-0-3-0-3-0-2-0-2-0-1-0-|
----------------------------------------|----------------------------------------|----------------------------------------|----------------------------------------|----------------------------------------|--2-2-0-3-3-0-0-0-0-3-0-3-0-2-0-2-0-1-0-|
----------------------------------------|-----------------------------------|----------------------------------------|-----------------------------------|----------------------------------------|-----------------------------------|----------------------------------------|---------------9---9---7---7-------|----------------------------------------|-----------------------------------|--2-2-0-3-3-0-0-0-0-3-0-3-0-2-0-5-0-6-0-|--5-0-3--0-0-0---0---0---0---0-1-0-|
----------------------------------------|----------------------------------------|----------------------------------------|--------------------9---9---7---7-------|----------------------------------------|--2-2-0-3-3-0-0-0-0---0---0---0---0-1-0-|
----------------------------------------|----------------------------------------|----------------------------------------|--------------------9---9---7---7-------|----------------------------------------|--2-2-0-3-3-0-0-0-0---0---0---0---0-1-0-|
-----------------------------------------|-----------------------------------|-----------------------------------------|-----------------------------------|-----------------------------------------|-----------------------------------|--------------------9---9---7---9---10---|--9---7--------9---9---7---7-------|-----------------------------------------|-----------------------------------|--2-2-0-3-3-0-0-0-0---0---0---0---0----0-|----0----0-0-0---0---0---0---0-1-0-|
----------------------------------------|----------------------------------------|----------------------------------------|--------------------9---9---7---7-------|----------------------------------------|--2-2-0-3-3-0-0-0-0---0---0---0---0-1-0-|
----------------------------------------|----------------------------------------|----------------------------------------|--------------------9---9---7---7-------|----------------------------------------|--2-2-0-3-3-0-0-0-0---0---0---0---0-1-0-|
-----------------------------------------|-----------------------------------------|-----------------------------------------|--------------------9---9---7---9---10---|-----------------------------------------|--2-2-0-3-3-0-0-0-0---0---0---0---0----0-|
---------------------------------------------------------|---------------------------------------------------------|---------------------------------------------------------|--9---7----------------------------------9-9-9-9-9-9-9-9-|---------7-7-7-7-7-7-7-7-7-7-7-7-7-7-7-7-----------------|----0----------------------------------------------------|
----------------------------------------------------------------------|----------------------------------------------------------------------|----------------------------------------------------------------------|------------------------------------------------------7-7-7-7-7-7-7-7-|--9-9-9-9-10-10-10-10-------------------------------------------------|----------------------8-8-8-8-8-8-8-8-8-8-8-8-8-8-8-8-----------------|
------------------------------------------------------------------|------------------------------------------------------------------|------------------------------------------------------------------|--5-5-5-5-4-4-4-4-------------------------------------------------|------------------2-2-2-2-2-2-2-2-2-2-2-2-3-3-2-2-0-0-0-0-0-0-0-0-|------------------------------------------------------------------|
------------------------------------------------------------------|------------------------------------------------------------------|------------------------------------------------------------------|------------------------------------------------------------------|--0-0-0-0-2-2-0-0-----------------2-2-2-2-2-2-2-2-7-7-7-7-7-7-7-7-|------------------3-3-3-3-3-3-3-3---------------------------------|
----------------------------------------------------------------------|----------------------------------------------------------------------|----------------------------------------------------------------------|------------------9-9-9-9-9-9-9-9-------------------------------------|--7-7-7-7-7-7-7-7-----------------9-9-9-9-10-10-10-10-----------------|------------------------------------------------------8-8-8-8-8-8-8-8-|
------------------------------------------------------------------|------------------------------------------------------------------|------------------------------------------------------------------|------------------7-7-7-7-7-7-7-7-5-5-5-5-4-4-4-4-----------------|--------------------------------------------------2-2-2-2-2-2-2-2-|--8-8-8-8-8-8-8-8-------------------------------------------------|
------------------------------------------------------------------|------------------------------------------------------------------|------------------------------------------------------------------|------------------------------------------------------------------|--2-2-2-2-3-3-2-2-0-0-0-0-0-0-0-0-0-0-0-0-2-2-0-0-----------------|--------------------------------------------------3-3-3-3-3-3-3-3-|
-----------------------------------|----------------||-----------------------------------|----------------||-----------------------------------|----------------||-----------------------------------|----------------||--2-2-2-2-2-2-2-2------------------|----------------||------------------0----0-0---0-0---|--0-0-0-0-0-0-0-||
Tap to rate this tab
 
# A B C D E F G H I J K L M N O P Q R S T U V W X Y Z