Veil Of Maya - Its Not Safe To Swim Today tab

"It's Not Safe To Swim Today"

by VEIL OF MAYA

written by Marc Okubo

tune to dropped b (b, f sharp, b, e, g sharp, c sharp)

tempo- hella fast


Intro  (Lead only)

-13p12------------------------|------13----------------------|---------12s10s9-10p9---------|---------------------10-------|-----------------------12-8s7-|------------------------------|
(both)----------------------------------------------|-6----------6---------------------------------|-9----------9---------------------------------|-7----------7---------7-7-7-7-7-7-5-5-5-5-5-5-|-8-00000000-8-0-0-0-0-3-3-3-3-3-3-3-3-3-3-3-3-|---00000000---0-0-0-0-3-3-3-3-3-3-3-3-3-3-3-3-|
---------------------------------------------------|-6----------6--------------------------------------|-9----------9-------------------6s9s10-------------|-7----------7---------12--12-12--------------------|-8-00000000-8-0-0-0-0-7---7--7--4s7s8--000-000-0-0-|---00000000---0-0-0-0-7---7--7---------000-000-0-0-|
----------------------------------------|-6----------6---------------------------|-9----------9---------------------------|-7----------7---------7--7-7-7-5--5-5-5-|-8-00000000-8-0-0-0-0-3--3-3-3-3--3-3-3-|---00000000---0-0-0-0-3--3-3-3-3--3-3-3-|
------------------13-12--------|-6-6s10-8-8s13-10-------13-----|---------------------------14--|s-------------------------------|-------------------------------|-------------------------------|
(Verse)------------------------------------------|------------------------------------------|------------------------------------------|------------------------------------------|----13-12p8--------8--7s8---8-7p5---5-4s5-|-888--8----11-11-11-11---555-5---777-7----|
-------------------------------------------------|-------------------------------------------------|-------------------------------------------------|----3-2h3---7-5h7-----------14-15----------15-19-|-111-1---444-4---------12-15----------15-19------|------------------12-15----------15-19-----------|
-------------10----12-----|-------10------10----10---|---10----10------10----10-|-14--14----14-------------|--------------------------|--------------------------|
-------------------------------------------------|-------------------------------------------------|-------------------------------------------------|-8-7---------8-7---------------------------7-----|-----8-5---------8-5-----------5---5-7-8-7---8-7-|---------8-5---------8-5-0-3-7---7---------------|
------------------------------------------------------|------------------------------------------------------|------------------------------------------14--------9-|-8-7---------8-7---------------------8s12----12---7---|-----8-5---------8-5------------8-12------------8-----|---------8-5---------8-5-0-8-12-----------------------|
--------------------------------------------------------|--------------------------------------------------------|-------------------------6-7-9-7-9-10--9-10-12-10-12-14-|-8-7---------8-7----------------------------------------|-----8-5---------8-5------------------------------------|---------8-5---------8-5--------------------------------|
----------------------------------------------------------------------------|----------------------------------------------------------------------------|----------------------------------------------------------------------------|-8-7---------8-7---------12-8-----------15-14-------------19-15-------------|-----8-5---------8-5----------12-8------------15-12-------------19-15-------|---------8-5---------8-5-----------12-8-------------15-12-------------19-15-|
(Breakdown 1)-----------------------------|-----------------------------|-----------------------------|-----------------------------|-00000-0000-00-00000-0000-00-|-00000-0000-00-00000-0000-00-|
(lead only)-------------------------------------|-------------------------------------|-------------15-18-------------18-21-|-------14-17-------------17-20-------|-13-16-------------16-19-------------|-------------------------------------|
-------------------------------------------------------------------------|----------15-17-18-------------------------------------------------------|-------14----------------14-12-10----------17----17----------14s15s14----|----15----------------10----------12----15----------15----12----------12-|-17----------------12----------------13-------13-------10----------------|-------------------------------------------------------------------------|
----------17-15-13-12h13p12------------13-------15----17-12-------13----15-|----------------------------13------------15----------------14-------------|-------14----------------------12s10s9-------15----15----------14----14----|----15---------------------------------------------------------------------|-17------------------------------------------------------------------------|---------------------------------------------------------------------------|
-10---------------------------------------------|----10------------------------------------------|-------10-9-10----------------------------------|---------------12-------10h12-10--10-10--7--7-7-|------------------10h12-------12--12-12--8--8-8-|------------------------------8---8--8---5--5-5-|
----------------------------13p12-----------------------------|-10-------13-------10------------13---------------------------|----10-------10-------10--------------------------------------|-------12-------12-------12-----------------------------------|-------------------------------------10s12-12-12--10h12-12-12-|-------------------------------------8-----8--8---11----11-11-|
-----------------------------------------|-18--18-18--17--17-17--13-13-13-10-10-10-|--------------------------------9--9--9--|-15--15-15--14--14-14--10-10-10-10-10-10-|-12--12-12--12--12-12--7--7--7--8--8--8--|-12--12-12--12--12-12--7--7--7-----------|
(lead fill overtop above riff)-------20-------------20-------20--20-20-17--17-17-|-17h18----18-18-17h18----17-17-17--17-17-17--17-17-|-------------------------------17--17-17-17--17-17-|-----------------------------------------19--19-19-|---------------------------------------------------|---------------------------------------------------|
-13p12-----------------------|------13---------------------|--------12s10s9-10p9---------|--------------------10-------|----------------------12-8s7-|-----------------------------|
(harmony)---------------------------------------------------------------------|---------------------------------------------------------------------|-----9-----5---7-----9s10s9------------12-----5---7-----10---9p5---5-|---7-----3---------7--------7-5h7---10------3---------7----------7---|-8-----1-----3---5----------------8-------1-----3---5------5---------|---------------------------------------------------------------------|
-10-----6------------------10-----------------------|-10--6-----10--5s6---------10--8s6s5---------6------|-7---------9---------------7----------6s7s9--9------|-7---3--5--7---2s3---------7---5s3s2----------------|-8---0--5--8--------0-000--8----------4s5s7----0000-|-8---0--5--7--------0-000--8-------------------0000-|
-10--8s10s8--------------------------------------------|-10----------10----------------------------------------|-7-----------9--10s12s10-10-------10----10-------10----|-7---5-------7-----------14-------14----14-------14----|-8---5-------8--8-s10s8-----00-00----00----00-00----00-|-8---5-------7--------------00-00----00----00-00----00-|
---------------13h17p13-----|-------------15--------15---|-----------14------------14-|---------15-----------------|-12s13h17-------------------|----------------------------|
(breakdown 2)---------------------|---------------------|---------------------|---------------------|-0-00-0--0-0-00-0--0-|-0-00-0--0-0-00-0--0-|
-----------------------------|-----------------------------|-----------------------------|-----------------------------|-00000-0000-00-00000-0000-00-|-00000-0000-00-00000-0000-00-|
-17h22-18h22------|------|------|------|
http://www.sumerianrecords.com/artists.php?band=1028 http://www.myspace.com/veilofmaya
Tap to rate this tab
 
# A B C D E F G H I J K L M N O P Q R S T U V W X Y Z